  0
SECTION
  2
HEADER
  9
$ACADVER
  1
AC1009
  9
$INSBASE
 10
0.0
 20
0.0
 30
0.0
  9
$EXTMIN
 10
-360.02197097989489
 20
-539.8393251062497
 30
-0.0015258207003583
  9
$EXTMAX
 10
360.02197433265633
 20
530.62804802803294
 30
0.0000000349246037
  9
$LIMMIN
 10
0.0
 20
0.0
  9
$LIMMAX
 10
0.0
 20
0.0
  9
$ORTHOMODE
 70
     0
  9
$REGENMODE
 70
     1
  9
$FILLMODE
 70
     1
  9
$QTEXTMODE
 70
     0
  9
$MIRRTEXT
 70
     1
  9
$DRAGMODE
 70
     2
  9
$LTSCALE
 40
20.32
  9
$OSMODE
 70
   231
  9
$ATTMODE
 70
     1
  9
$TEXTSIZE
 40
0.0
  9
$TRACEWID
 40
1.0
  9
$TEXTSTYLE
  7
STANDARD
  9
$CLAYER
  8
DATA
  9
$CELTYPE
  6
BYLAYER
  9
$CECOLOR
 62
   256
  9
$DIMSCALE
 40
1.0
  9
$DIMASZ
 40
0.18
  9
$DIMEXO
 40
0.0625
  9
$DIMDLI
 40
0.38
  9
$DIMRND
 40
0.0
  9
$DIMDLE
 40
0.0
  9
$DIMEXE
 40
0.18
  9
$DIMTP
 40
0.0
  9
$DIMTM
 40
0.0
  9
$DIMTXT
 40
0.18
  9
$DIMCEN
 40
0.09
  9
$DIMTSZ
 40
0.0
  9
$DIMTOL
 70
     0
  9
$DIMLIM
 70
     0
  9
$DIMTIH
 70
     1
  9
$DIMTOH
 70
     1
  9
$DIMSE1
 70
     0
  9
$DIMSE2
 70
     0
  9
$DIMTAD
 70
     0
  9
$DIMZIN
 70
     0
  9
$DIMBLK
  1

  9
$DIMASO
 70
     1
  9
$DIMSHO
 70
     1
  9
$DIMPOST
  1

  9
$DIMAPOST
  1

  9
$DIMALT
 70
     0
  9
$DIMALTD
 70
     2
  9
$DIMALTF
 40
25.399999999999999
  9
$DIMLFAC
 40
1.0
  9
$DIMTOFL
 70
     0
  9
$DIMTVP
 40
0.0
  9
$DIMTIX
 70
     0
  9
$DIMSOXD
 70
     0
  9
$DIMSAH
 70
     0
  9
$DIMBLK1
  1

  9
$DIMBLK2
  1

  9
$DIMSTYLE
  2
STANDARD
  9
$DIMCLRD
 70
     0
  9
$DIMCLRE
 70
     0
  9
$DIMCLRT
 70
     0
  9
$DIMTFAC
 40
1.0
  9
$DIMGAP
 40
0.09
  9
$LUNITS
 70
     2
  9
$LUPREC
 70
     4
  9
$SKETCHINC
 40
0.1
  9
$FILLETRAD
 40
0.0
  9
$AUNITS
 70
     0
  9
$AUPREC
 70
     0
  9
$MENU
  1
acad
  9
$ELEVATION
 40
0.0
  9
$PELEVATION
 40
0.0
  9
$THICKNESS
 40
0.0
  9
$LIMCHECK
 70
     0
  9
$BLIPMODE
 70
     0
  9
$CHAMFERA
 40
0.0
  9
$CHAMFERB
 40
0.0
  9
$SKPOLY
 70
     0
  9
$TDCREATE
 40
2456191.693530092
  9
$TDUPDATE
 40
2456191.7081495598
  9
$TDINDWG
 40
0.0003584722
  9
$TDUSRTIMER
 40
0.000358287
  9
$USRTIMER
 70
     1
  9
$ANGBASE
 50
0.0
  9
$ANGDIR
 70
     0
  9
$PDMODE
 70
     1
  9
$PDSIZE
 40
-2.0
  9
$PLINEWID
 40
0.0
  9
$COORDS
 70
     2
  9
$SPLFRAME
 70
     0
  9
$SPLINETYPE
 70
     6
  9
$SPLINESEGS
 70
     8
  9
$ATTDIA
 70
     0
  9
$ATTREQ
 70
     1
  9
$HANDLING
 70
     1
  9
$HANDSEED
  5
2A9
  9
$SURFTAB1
 70
     6
  9
$SURFTAB2
 70
     6
  9
$SURFTYPE
 70
     6
  9
$SURFU
 70
     6
  9
$SURFV
 70
     6
  9
$UCSNAME
  2

  9
$UCSORG
 10
0.0
 20
0.0
 30
0.0
  9
$UCSXDIR
 10
1.0
 20
0.0
 30
0.0
  9
$UCSYDIR
 10
0.0
 20
1.0
 30
0.0
  9
$PUCSNAME
  2

  9
$PUCSORG
 10
0.0
 20
0.0
 30
0.0
  9
$PUCSXDIR
 10
1.0
 20
0.0
 30
0.0
  9
$PUCSYDIR
 10
0.0
 20
1.0
 30
0.0
  9
$USERI1
 70
     0
  9
$USERI2
 70
     0
  9
$USERI3
 70
     0
  9
$USERI4
 70
     0
  9
$USERI5
 70
     0
  9
$USERR1
 40
0.0
  9
$USERR2
 40
0.0
  9
$USERR3
 40
0.0
  9
$USERR4
 40
0.0
  9
$USERR5
 40
0.0
  9
$WORLDVIEW
 70
     1
  9
$SHADEDGE
 70
     3
  9
$SHADEDIF
 70
    70
  9
$TILEMODE
 70
     1
  9
$MAXACTVP
 70
    64
  9
$PLIMCHECK
 70
     0
  9
$PEXTMIN
 10
1.0000000000000000E+020
 20
1.0000000000000000E+020
 30
1.0000000000000000E+020
  9
$PEXTMAX
 10
-1.0000000000000000E+020
 20
-1.0000000000000000E+020
 30
-1.0000000000000000E+020
  9
$PLIMMIN
 10
0.0
 20
0.0
  9
$PLIMMAX
 10
12.0
 20
9.0
  9
$UNITMODE
 70
     0
  9
$VISRETAIN
 70
     0
  9
$PLINEGEN
 70
     1
  9
$PSLTSCALE
 70
     0
  0
ENDSEC
  0
SECTION
  2
TABLES
  0
TABLE
  2
VPORT
 70
     1
  0
VPORT
  2
*ACTIVE
 70
     0
 10
0.0
 20
0.0
 11
1.0
 21
1.0
 12
0.0000016763808617
 22
-3.5318125127764679
 13
0.0
 23
0.0
 14
1.0
 24
1.0
 15
0.0
 25
0.0
 16
0.0
 26
0.0
 36
1.0
 17
0.0
 27
0.0
 37
0.0
 40
1076.832228819321
 41
2.227393617021276
 42
50.0
 43
0.0
 44
0.0
 50
0.0
 51
0.0
 71
     0
 72
  2000
 73
     1
 74
     1
 75
     0
 76
     0
 77
     0
 78
     0
  0
ENDTAB
  0
TABLE
  2
LTYPE
 70
    12
  0
LTYPE
  2
CONTINUOUS
 70
     0
  3
Solid line
 72
    65
 73
     0
 40
0.0
  0
LTYPE
  2
PHANTOM2
 70
     0
  3
___ _ _ ___ _ _ ___ _ _ ___ _ _
 72
    65
 73
     6
 40
1.25
 49
0.625
 49
-0.125
 49
0.125
 49
-0.125
 49
0.125
 49
-0.125
  0
ENDTAB
  0
TABLE
  2
LAYER
 70
     5
  0
LAYER
  2
0
 70
     0
 62
     7
  6
CONTINUOUS
  0
LAYER
  2
DATA
 70
     0
 62
     7
  6
CONTINUOUS
  0
LAYER
  2
HIBINO-BASE
 70
     0
 62
     7
  6
CONTINUOUS
  0
LAYER
  2
SPEC
 70
     0
 62
     7
  6
CONTINUOUS
  0
LAYER
  2
DIMNSIONS
 70
     0
 62
     7
  6
CONTINUOUS
  0
ENDTAB
  0
TABLE
  2
STYLE
 70
     3
  0
STYLE
  2
STANDARD
 70
     0
 40
0.0
 41
1.0
 50
0.0
 71
     0
 42
0.0
  3
txt
  4
BIGFONT.SHX
  0
ENDTAB
  0
TABLE
  2
VIEW
 70
     0
  0
ENDTAB
  0
TABLE
  2
UCS
 70
     0
  0
ENDTAB
  0
TABLE
  2
APPID
 70
     4
  0
APPID
  2
ACAD
 70
     0
  0
APPID
  2
ACADANNOTATIVE
 70
     0
  0
APPID
  2
ACAD_NAV_VCDISPLAY
 70
     0
  0
APPID
  2
ACAD_MLEADERVER
 70
     0
  0
ENDTAB
  0
TABLE
  2
DIMSTYLE
 70
     2
  0
DIMSTYLE
  2
STANDARD
 70
     0
  3

  4

  5

  6

  7

 40
1.0
 41
0.18
 42
0.0625
 43
0.38
 44
0.18
 45
0.0
 46
0.0
 47
0.0
 48
0.0
140
0.18
141
0.09
142
0.0
143
25.399999999999999
144
1.0
145
0.0
146
1.0
147
0.09
 71
     0
 72
     0
 73
     1
 74
     1
 75
     0
 76
     0
 77
     0
 78
     0
170
     0
171
     2
172
     0
173
     0
174
     0
175
     0
176
     0
177
     0
178
     0
  0
ENDTAB
  0
ENDSEC
  0
SECTION
  2
BLOCKS
  0
BLOCK
  8
0
  2
$MODEL_SPACE
 70
     0
 10
0.0
 20
0.0
 30
0.0
  3
$MODEL_SPACE
  1

  0
ENDBLK
  5
23C
  8
0
  0
BLOCK
 67
     1
  8
0
  2
$PAPER_SPACE
 70
     0
 10
0.0
 20
0.0
 30
0.0
  3
$PAPER_SPACE
  1

  0
ENDBLK
  5
238
 67
     1
  8
0
  0
ENDSEC
  0
SECTION
  2
ENTITIES
  0
LINE
  5
2C
  8
HIBINO-BASE
  6
CONTINUOUS
 62
     7
 10
-360.0
 20
530.59544499999993
 30
0.0
 11
360.0
 21
530.59544499999993
 31
0.0
  0
LINE
  5
2D
  8
HIBINO-BASE
  6
CONTINUOUS
 62
     7
 10
360.0
 20
-509.40455500000002
 30
0.0
 11
-360.0
 21
-509.40455500000002
 31
0.0
  0
LINE
  5
2E
  8
HIBINO-BASE
  6
CONTINUOUS
 62
     7
 10
-360.0
 20
-509.40455500000002
 30
0.0
 11
-360.0
 21
530.59544499999993
 31
0.0
  0
TEXT
  5
2F
  8
HIBINO-BASE
 62
     7
 10
-331.2639999999999
 20
-535.03926619999982
 30
0.0
 40
14.40017671875
  1
Hibino Corporation
 41
0.7
 11
-331.2639999999999
 21
-520.63908948124981
 31
0.0
 73
     3
  0
LINE
  5
30
  8
HIBINO-BASE
  6
CONTINUOUS
 62
     7
 10
360.0
 20
530.59544499999993
 30
0.0
 11
360.0
 21
-509.40455500000002
 31
0.0
  0
LINE
  5
31
  8
HIBINO-BASE
  6
CONTINUOUS
 62
     7
 10
0.0
 20
-419.40455500000002
 30
0.0
 11
360.0
 21
-419.40455500000002
 31
0.0
  0
LINE
  5
32
  8
HIBINO-BASE
  6
CONTINUOUS
 62
     7
 10
0.0
 20
-509.40455500000002
 30
0.0
 11
0.0
 21
-419.40455500000002
 31
0.0
  0
TEXT
  5
33
  8
HIBINO-BASE
 62
     7
 10
3.5999999999999992
 20
-429.43932833333332
 30
0.0
 40
6.5153645833333318
  1
NOTE
 41
0.7
 11
3.6000000000000001
 21
-422.92396374999998
 31
0.0
 73
     3
  0
LINE
  5
34
  8
HIBINO-BASE
  6
CONTINUOUS
 62
     7
 10
140.0
 20
-509.40455500000002
 30
0.0
 11
140.0
 21
-419.40455500000002
 31
0.0
  0
TEXT
  5
35
  8
HIBINO-BASE
 62
     7
 10
143.59999999999999
 20
-429.43932833333332
 30
0.0
 40
6.5153645833333318
  1
TITLE
 41
0.7
 11
143.59999999999999
 21
-422.92396374999998
 31
0.0
 73
     3
  0
TEXT
  5
36
  8
HIBINO-BASE
 62
     7
 10
200.27356
 20
-535.03926619999982
 30
0.0
 40
14.40017671875
  1
ヒビノ株式会社
 41
0.7
 11
200.27356
 21
-520.63908948124981
 31
0.0
 73
     3
  0
LINE
  5
37
  8
HIBINO-BASE
  6
CONTINUOUS
 62
     7
 10
0.0
 20
-469.40455500000002
 30
0.0
 11
360.0
 21
-469.40455500000002
 31
0.0
  0
TEXT
  5
38
  8
HIBINO-BASE
 62
     7
 10
193.59999999999999
 20
-479.21404833333332
 30
0.0
 40
6.5153645833333318
  1
DRAWN
 41
0.7
 11
193.59999999999999
 21
-472.69868374999999
 31
0.0
 73
     3
  0
TEXT
  5
39
  8
HIBINO-BASE
 62
     7
 10
93.599999999999994
 20
-479.21404833333332
 30
0.0
 40
6.5153645833333318
  1
DATE
 41
0.7
 11
93.599999999999994
 21
-472.69868374999999
 31
0.0
 73
     3
  0
TEXT
  5
3A
  8
HIBINO-BASE
 62
     7
 10
53.600000000000001
 20
-479.21404833333332
 30
0.0
 40
6.5153645833333318
  1
SCALE
 41
0.7
 11
53.600000000000001
 21
-472.69868374999999
 31
0.0
 73
     3
  0
TEXT
  5
3B
  8
HIBINO-BASE
 62
     7
 10
143.59999999999999
 20
-479.21404833333332
 30
0.0
 40
6.5153645833333318
  1
DESIGN
 41
0.7
 11
143.59999999999999
 21
-472.69868374999999
 31
0.0
 73
     3
  0
TEXT
  5
3C
  8
HIBINO-BASE
 62
     7
 10
293.60000000000002
 20
-479.21404833333332
 30
0.0
 40
6.5153645833333318
  1
DRAWING NO.
 41
0.7
 11
293.60000000000002
 21
-472.69868374999999
 31
0.0
 73
     3
  0
TEXT
  5
3D
  8
HIBINO-BASE
 62
     7
 10
243.59999999999999
 20
-479.21404833333332
 30
0.0
 40
6.5153645833333318
  1
CHECK
 41
0.7
 11
243.59999999999999
 21
-472.69868374999999
 31
0.0
 73
     3
  0
LINE
  5
3E
  8
HIBINO-BASE
  6
CONTINUOUS
 62
     7
 10
57.5
 20
-504.4045549999999
 30
0.0
 11
72.5
 21
-489.40455500000002
 31
0.0
  0
TEXT
  5
3F
  8
HIBINO-BASE
 62
     7
 10
55.0
 20
-493.84032833333328
 30
0.0
 40
6.5153645833333318
  1
1
 41
0.7
 11
55.0
 21
-487.32496374999988
 31
0.0
 73
     3
  0
LINE
  5
40
  8
HIBINO-BASE
  6
CONTINUOUS
 62
     7
 10
50.0
 20
-509.40455500000002
 30
0.0
 11
50.0
 21
-469.40455500000002
 31
0.0
  0
LINE
  5
41
  8
HIBINO-BASE
  6
CONTINUOUS
 62
     7
 10
89.999999999999986
 20
-509.40455500000002
 30
0.0
 11
89.999999999999986
 21
-469.40455500000002
 31
0.0
  0
LINE
  5
42
  8
HIBINO-BASE
  6
CONTINUOUS
 62
     7
 10
190.0
 20
-469.40455500000002
 30
0.0
 11
190.0
 21
-509.40455500000002
 31
0.0
  0
LINE
  5
43
  8
HIBINO-BASE
  6
CONTINUOUS
 62
     7
 10
290.0
 20
-469.40455500000002
 30
0.0
 11
290.0
 21
-509.40455500000002
 31
0.0
  0
LINE
  5
44
  8
HIBINO-BASE
  6
CONTINUOUS
 62
     7
 10
240.0
 20
-509.40455500000002
 30
0.0
 11
240.0
 21
-469.40455500000002
 31
0.0
  0
TEXT
  5
45
  8
HIBINO-BASE
 62
     7
 10
93.426159999999996
 20
-497.94996833333329
 30
0.0
 40
6.5153645833333318
  1
'12.09.
 41
0.7
 11
93.426159999999996
 21
-491.43460375000001
 31
0.0
 73
     3
  0
TEXT
  5
46
  8
HIBINO-BASE
 62
     7
 10
70.0
 20
-501.34032833333328
 30
0.0
 40
6.5153645833333318
  1
4
 41
0.7
 11
70.0
 21
-494.82496374999999
 31
0.0
 73
     3
  0
TEXT
  5
47
  8
HIBINO-BASE
 62
     7
 10
196.02324004413839
 20
-497.94996833333329
 30
0.0
 40
6.5153645833333318
  1
Ootake
 41
0.7
 11
196.02324004413839
 21
-491.43460375000001
 31
0.0
 73
     3
  0
TEXT
  5
48
  8
HIBINO-BASE
 62
     7
 10
15.53333333333339
 20
-501.50055499999991
 30
0.0
 40
13.03072916666666
  1
A4
 41
0.7
 11
15.53333333333339
 21
-488.46982583333318
 31
0.0
 73
     3
  0
TEXT
  5
49
  8
HIBINO-BASE
 62
     7
 10
3.8333333333333282
 20
-479.88237499999991
 30
0.0
 40
6.5153645833333318
  1
PAPER SIZE
 41
0.7
 11
3.8333333333333282
 21
-473.36701041666652
 31
0.0
 73
     3
  0
LINE
  5
4A
  8
SPEC
  6
CONTINUOUS
 62
     7
 10
-329.99999999999989
 20
490.59544499999993
 30
0.0
 11
260.0
 21
490.59544499999993
 31
0.0
  0
LINE
  5
4B
  8
SPEC
  6
CONTINUOUS
 62
     7
 10
-329.99999999999989
 20
475.59544499999993
 30
0.0
 11
260.0
 21
475.59544499999993
 31
0.0
  0
LINE
  5
4C
  8
SPEC
  6
CONTINUOUS
 62
     7
 10
-329.99999999999989
 20
415.59544499999993
 30
0.0
 11
260.0
 21
415.59544499999993
 31
0.0
  0
LINE
  5
4D
  8
SPEC
  6
CONTINUOUS
 62
     7
 10
-329.99999999999989
 20
430.59544499999993
 30
0.0
 11
260.0
 21
430.59544499999993
 31
0.0
  0
LINE
  5
4E
  8
SPEC
  6
CONTINUOUS
 62
     7
 10
-329.99999999999989
 20
445.59544499999993
 30
0.0
 11
260.0
 21
445.59544499999993
 31
0.0
  0
LINE
  5
4F
  8
SPEC
  6
CONTINUOUS
 62
     7
 10
-329.99999999999989
 20
400.59544499999993
 30
0.0
 11
260.0
 21
400.59544499999993
 31
0.0
  0
LINE
  5
50
  8
SPEC
  6
CONTINUOUS
 62
     7
 10
-329.99999999999989
 20
385.59544499999993
 30
0.0
 11
260.0
 21
385.59544499999993
 31
0.0
  0
LINE
  5
51
  8
SPEC
  6
CONTINUOUS
 62
     7
 10
-329.99999999999989
 20
460.59544499999993
 30
0.0
 11
260.0
 21
460.59544499999993
 31
0.0
  0
TEXT
  5
52
  8
SPEC
 62
     7
 10
-196.518948515744
 20
479.2823997208481
 30
0.0
 40
7.6012449999999978
  1
5ピン・グースネック
 41
0.7
 11
-196.518948515744
 21
486.883644720848
 31
0.0
 73
     3
  0
LINE
  5
53
  8
SPEC
  6
CONTINUOUS
 62
     7
 10
-329.99999999999989
 20
490.59544499999993
 30
0.0
 11
-329.99999999999989
 21
385.59544499999998
 31
0.0
  0
TEXT
  5
54
  8
SPEC
 62
     7
 10
-325.0
 20
496.16852499999999
 30
0.0
 40
9.7730468750000004
  1
仕様
 41
0.7
 11
-325.0
 21
505.94157187500002
 31
0.0
 73
     3
  0
LINE
  5
55
  8
SPEC
  6
CONTINUOUS
 62
     7
 10
-200.0
 20
490.59544499999993
 30
0.0
 11
-200.0
 21
385.59544499999998
 31
0.0
  0
LINE
  5
56
  8
SPEC
  6
CONTINUOUS
 62
     7
 10
260.0
 20
490.59544499999993
 30
0.0
 11
260.0
 21
385.59544499999998
 31
0.0
  0
TEXT
  5
57
  8
SPEC
 62
     7
 10
-326.64472446166002
 20
479.00187147391421
 30
0.0
 40
7.6012449999999978
  1
形式
 41
0.7
 11
-326.64472446166002
 21
486.60311647391421
 31
0.0
 73
     3
  0
TEXT
  5
58
  8
SPEC
 62
     7
 10
-327.94316997785347
 20
464.35856635144211
 30
0.0
 40
7.6012449999999978
  1
ローカットフィルター
 41
0.7
 11
-327.94316997785347
 21
471.95981135144211
 31
0.0
 73
     3
  0
TEXT
  5
59
  8
SPEC
 62
     7
 10
-326.92115932013797
 20
449.72925535636199
 30
0.0
 40
7.6012449999999978
  1
インピーダンス
 41
0.7
 11
-326.92115932013797
 21
457.33050035636199
 31
0.0
 73
     3
  0
TEXT
  5
5A
  8
SPEC
 62
     7
 10
-196.50498508761819
 20
449.32454938189983
 30
0.0
 40
7.6012449999999978
  1
600\U+03A9以下
 41
0.7
 11
-196.50498508761819
 21
456.92579438189972
 31
0.0
 73
     3
  0
TEXT
  5
5B
  8
SPEC
 62
     7
 10
-196.4525753069714
 20
464.2991721231989
 30
0.0
 40
7.6012449999999978
  1
200Hz(6dB/oct）＊ジャンパーで設定
 41
0.7
 11
-196.4525753069714
 21
471.90041712319891
 31
0.0
 73
     3
  0
TEXT
  5
5C
  8
SPEC
 62
     7
 10
-326.7786207825398
 20
434.3967416050445
 30
0.0
 40
7.6012449999999978
  1
電源
 41
0.7
 11
-326.7786207825398
 21
441.99798660504462
 31
0.0
 73
     3
  0
TEXT
  5
5D
  8
SPEC
 62
     7
 10
-197.56393413244351
 20
434.69280672928841
 30
0.0
 40
7.6012449999999978
  1
ファンタム　DC9～52V/3.5mA以下
 41
0.7
 11
-197.56393413244351
 21
442.29405172928841
 31
0.0
 73
     3
  0
TEXT
  5
5E
  8
SPEC
 62
     7
 10
-327.47900268471687
 20
419.36486956413819
 30
0.0
 40
7.6012449999999978
  1
コネクター
 41
0.7
 11
-327.47900268471687
 21
426.96611456413808
 31
0.0
 73
     3
  0
TEXT
  5
5F
  8
SPEC
 62
     7
 10
-196.1647120754792
 20
419.10006328678139
 30
0.0
 40
7.6012449999999978
  1
XLR5ピン　オス
 41
0.7
 11
-196.1647120754792
 21
426.7013082867814
 31
0.0
 73
     3
  0
TEXT
  5
60
  8
SPEC
 62
     7
 10
-326.85064889027137
 20
404.5743154797695
 30
0.0
 40
7.6012586805555546
  1
寸法
 41
0.7
 11
-326.85064889027137
 21
412.17557416032508
 31
0.0
 73
     3
  0
TEXT
  5
61
  8
SPEC
 62
     7
 10
-326.69804839140232
 20
389.78734457948411
 30
0.0
 40
7.6012586805555546
  1
重量
 41
0.7
 11
-326.69804839140232
 21
397.38860326003959
 31
0.0
 73
     3
  0
TEXT
  5
62
  8
SPEC
 62
     7
 10
-197.4969227133478
 20
404.35279216340871
 30
0.0
 40
7.6012586805555546
  1
\U+03A619\U+00D7379mm(突起部含まず)
 41
0.7
 11
-197.4969227133478
 21
411.9540508439643
 31
0.0
 73
     3
  0
TEXT
  5
63
  8
SPEC
 62
     7
 10
-196.5349061655435
 20
389.49417486563908
 30
0.0
 40
7.6012586805555546
  1
約180g
 41
0.7
 11
-196.5349061655435
 21
397.09543354619461
 31
0.0
 73
     3
  0
TEXT
  5
64
  8
DIMNSIONS
 62
     7
 10
-80.0
 20
-460.32659499999988
 30
0.0
 40
9.7730468750000004
  1
(単位：mm)
 41
0.7
 11
-80.0
 21
-450.55354812499991
 31
0.0
 73
     3
  0
LINE
  5
65
  8
DIMNSIONS
  6
CONTINUOUS
 62
     7
 10
-158.0
 20
-259.49999999963961
 30
0.0
 11
-208.0
 21
-259.49999999963961
 31
0.0
  0
LINE
  5
66
  8
DIMNSIONS
  6
CONTINUOUS
 62
     7
 10
-158.0
 20
-238.49999999963961
 30
0.0
 11
-208.0
 21
-238.49999999963961
 31
0.0
  0
LINE
  5
67
  8
DIMNSIONS
  6
CONTINUOUS
 62
     7
 10
-200.0
 20
-238.49999999963961
 30
0.0
 11
-200.0
 21
-259.49999999963961
 31
0.0
  0
LINE
  5
68
  8
DIMNSIONS
  6
CONTINUOUS
 62
     7
 10
-200.0
 20
-259.49999999963961
 30
0.0
 11
-200.0
 21
-279.49999999963961
 31
0.0
  0
LINE
  5
69
  8
DIMNSIONS
  6
CONTINUOUS
 62
     7
 10
-200.0
 20
-259.49999999963961
 30
0.0
 11
-197.31984081939899
 21
-269.5024902340146
 31
0.0
  0
LINE
  5
6A
  8
DIMNSIONS
  6
CONTINUOUS
 62
     7
 10
-200.0
 20
-259.49999999963961
 30
0.0
 11
-202.68015918060101
 21
-269.5024902340146
 31
0.0
  0
LINE
  5
6B
  8
DIMNSIONS
  6
CONTINUOUS
 62
     7
 10
-200.0
 20
-238.49999999963961
 30
0.0
 11
-200.0
 21
-218.49999999963961
 31
0.0
  0
LINE
  5
6C
  8
DIMNSIONS
  6
CONTINUOUS
 62
     7
 10
-200.0
 20
-238.49999999963961
 30
0.0
 11
-202.68015918060101
 21
-228.4975097652646
 31
0.0
  0
LINE
  5
6D
  8
DIMNSIONS
  6
CONTINUOUS
 62
     7
 10
-200.0
 20
-238.49999999963961
 30
0.0
 11
-197.31984081939899
 21
-228.4975097652646
 31
0.0
  0
TEXT
  5
6E
  8
DIMNSIONS
 62
     7
 10
-203.9755555555555
 20
-256.05555555519521
 30
0.0
 40
10.85894097222222
  1
21
 50
90.0
 41
0.7
 11
-214.8344965277777
 21
-256.05555555519521
 31
0.0
 73
     3
  0
LINE
  5
6F
  8
DIMNSIONS
  6
CONTINUOUS
 62
     7
 10
-144.9154594510174
 20
-241.97519798303449
 30
0.0
 11
-134.34999999999999
 21
-225.2999999996396
 31
0.0
  0
LINE
  5
70
  8
DIMNSIONS
  6
CONTINUOUS
 62
     7
 10
-144.9154594510174
 20
-241.97519798303449
 30
0.0
 11
-141.7154834441989
 21
-232.12668450749351
 31
0.0
  0
LINE
  5
71
  8
DIMNSIONS
  6
CONTINUOUS
 62
     7
 10
-144.9154594510174
 20
-241.97519798303449
 30
0.0
 11
-137.2199421998414
 21
-235.0461231271118
 31
0.0
  0
LINE
  5
72
  8
DIMNSIONS
  6
CONTINUOUS
 62
     7
 10
-134.34999999999999
 20
-225.2999999996396
 30
0.0
 11
-98.127777777777766
 21
-225.2999999996396
 31
0.0
  0
TEXT
  5
73
  8
DIMNSIONS
 62
     7
 10
-126.34999999999999
 20
-221.32444444408409
 30
0.0
 40
10.85894097222222
  1
\U+03C619
 41
0.7
 11
-126.34999999999999
 21
-210.46550347186189
 31
0.0
 73
     3
  0
LINE
  5
74
  8
DIMNSIONS
  6
CONTINUOUS
 62
     7
 10
-145.53997111660539
 20
255.39519622991281
 30
0.0
 11
-134.5
 21
268.75
 31
0.0
  0
LINE
  5
75
  8
DIMNSIONS
  6
CONTINUOUS
 62
     7
 10
-145.53997111660539
 20
255.39519622991281
 30
0.0
 11
-141.16361537491221
 21
264.78032140458549
 31
0.0
  0
LINE
  5
76
  8
DIMNSIONS
  6
CONTINUOUS
 62
     7
 10
-145.53997111660539
 20
255.39519622991281
 30
0.0
 11
-137.0573732809649
 21
261.33477517802959
 31
0.0
  0
LINE
  5
77
  8
DIMNSIONS
  6
CONTINUOUS
 62
     7
 10
-134.5
 20
268.75
 30
0.0
 11
-98.277777777777771
 21
268.75
 31
0.0
  0
TEXT
  5
78
  8
DIMNSIONS
 62
     7
 10
-126.5
 20
272.7255555555555
 30
0.0
 40
10.85894097222222
  1
\U+03C614
 41
0.7
 11
-126.5
 21
283.58449652777767
 31
0.0
 73
     3
  0
LINE
  5
79
  8
DIMNSIONS
  6
CONTINUOUS
 62
     7
 10
-167.5
 20
-200.0
 30
0.0
 11
-208.0
 21
-200.0
 31
0.0
  0
LINE
  5
7A
  8
DIMNSIONS
  6
CONTINUOUS
 62
     7
 10
-162.75
 20
-72.0
 30
0.0
 11
-208.0
 21
-72.0
 31
0.0
  0
LINE
  5
7B
  8
DIMNSIONS
  6
CONTINUOUS
 62
     7
 10
-200.0
 20
-200.0
 30
0.0
 11
-200.0
 21
-72.0
 31
0.0
  0
LINE
  5
7C
  8
DIMNSIONS
  6
CONTINUOUS
 62
     7
 10
-200.0
 20
-200.0
 30
0.0
 11
-202.68015918060101
 21
-189.99750976562501
 31
0.0
  0
LINE
  5
7D
  8
DIMNSIONS
  6
CONTINUOUS
 62
     7
 10
-200.0
 20
-200.0
 30
0.0
 11
-197.31984081939899
 21
-189.99750976562501
 31
0.0
  0
LINE
  5
7E
  8
DIMNSIONS
  6
CONTINUOUS
 62
     7
 10
-200.0
 20
-72.0
 30
0.0
 11
-197.31984081939899
 21
-82.002490234375017
 31
0.0
  0
LINE
  5
7F
  8
DIMNSIONS
  6
CONTINUOUS
 62
     7
 10
-200.0
 20
-72.0
 30
0.0
 11
-202.68015918060101
 21
-82.002490234375017
 31
0.0
  0
TEXT
  5
80
  8
DIMNSIONS
 62
     7
 10
-203.97555664476451
 20
-146.583338716295
 30
0.0
 40
10.85894695922466
  1
128
 50
90.0
 41
0.7
 11
-214.83450360398919
 21
-146.583338716295
 31
0.0
 73
     3
  0
LINE
  5
81
  8
DIMNSIONS
  6
CONTINUOUS
 62
     7
 10
-167.5
 20
-200.0
 30
0.0
 11
-258.0
 21
-200.0
 31
0.0
  0
LINE
  5
82
  8
DIMNSIONS
  6
CONTINUOUS
 62
     7
 10
-165.0
 20
179.0
 30
0.0
 11
-258.0
 21
179.0
 31
0.0
  0
LINE
  5
83
  8
DIMNSIONS
  6
CONTINUOUS
 62
     7
 10
-250.0
 20
-200.0
 30
0.0
 11
-250.0
 21
179.0
 31
0.0
  0
LINE
  5
84
  8
DIMNSIONS
  6
CONTINUOUS
 62
     7
 10
-250.0
 20
-200.0
 30
0.0
 11
-252.68015918060101
 21
-189.99750976562501
 31
0.0
  0
LINE
  5
85
  8
DIMNSIONS
  6
CONTINUOUS
 62
     7
 10
-250.0
 20
-200.0
 30
0.0
 11
-247.31984081939899
 21
-189.99750976562501
 31
0.0
  0
LINE
  5
86
  8
DIMNSIONS
  6
CONTINUOUS
 62
     7
 10
-250.0
 20
179.0
 30
0.0
 11
-247.31984081939899
 21
168.99750976562501
 31
0.0
  0
LINE
  5
87
  8
DIMNSIONS
  6
CONTINUOUS
 62
     7
 10
-250.0
 20
179.0
 30
0.0
 11
-252.68015918060101
 21
168.99750976562501
 31
0.0
  0
TEXT
  5
88
  8
DIMNSIONS
 62
     7
 10
-253.97555664476451
 20
-21.083338716295032
 30
0.0
 40
10.85894695922466
  1
379
 50
90.0
 41
0.7
 11
-264.83450360398911
 21
-21.083338716295032
 31
0.0
 73
     3
  0
LINE
  5
89
  8
DIMNSIONS
  6
CONTINUOUS
 62
     7
 10
-159.5
 20
176.5
 30
0.0
 11
-159.5
 21
208.0
 31
0.0
  0
LINE
  5
8A
  8
DIMNSIONS
  6
CONTINUOUS
 62
     7
 10
-140.5
 20
176.5
 30
0.0
 11
-140.5
 21
208.0
 31
0.0
  0
LINE
  5
8B
  8
DIMNSIONS
  6
CONTINUOUS
 62
     7
 10
-140.5
 20
200.0
 30
0.0
 11
-159.5
 21
200.0
 31
0.0
  0
LINE
  5
8C
  8
DIMNSIONS
  6
CONTINUOUS
 62
     7
 10
-159.5
 20
200.0
 30
0.0
 11
-179.5
 21
200.0
 31
0.0
  0
LINE
  5
8D
  8
DIMNSIONS
  6
CONTINUOUS
 62
     7
 10
-159.5
 20
200.0
 30
0.0
 11
-169.50249023437499
 21
197.31984081939899
 31
0.0
  0
LINE
  5
8E
  8
DIMNSIONS
  6
CONTINUOUS
 62
     7
 10
-159.5
 20
200.0
 30
0.0
 11
-169.50249023437499
 21
202.68015918060101
 31
0.0
  0
LINE
  5
8F
  8
DIMNSIONS
  6
CONTINUOUS
 62
     7
 10
-140.5
 20
200.0
 30
0.0
 11
-120.5
 21
200.0
 31
0.0
  0
LINE
  5
90
  8
DIMNSIONS
  6
CONTINUOUS
 62
     7
 10
-140.5
 20
200.0
 30
0.0
 11
-130.49750976562501
 21
202.68015918060101
 31
0.0
  0
LINE
  5
91
  8
DIMNSIONS
  6
CONTINUOUS
 62
     7
 10
-140.5
 20
200.0
 30
0.0
 11
-130.49750976562501
 21
197.31984081939899
 31
0.0
  0
TEXT
  5
92
  8
DIMNSIONS
 62
     7
 10
-157.0555595927768
 20
203.97555664476451
 30
0.0
 40
10.85894695922466
  1
19
 41
0.7
 11
-157.0555595927768
 21
214.83450360398919
 31
0.0
 73
     3
  0
TEXT
  5
93
  8
DATA
 62
     7
 10
199.59855411905511
 20
-464.72041664762202
 30
0.0
 40
9.7730468750000004
  1
GN 30E 5Pin
 41
0.7
 11
199.59855411905511
 21
-454.94736977262198
 31
0.0
 73
     3
  0
TEXT
  5
94
  8
DATA
 62
     7
 10
200.0
 20
-435.88099499999998
 30
0.0
 40
9.7730468750000004
  1
AKG
 41
0.7
 11
200.0
 21
-426.10794812500001
 31
0.0
 73
     3
  0
TEXT
  5
95
  8
DATA
 62
     7
 10
190.0
 20
-448.97880213142957
 30
0.0
 40
6.5153748437499992
  1
グースネック
 41
0.7
 11
190.0
 21
-442.46342728767962
 31
0.0
 73
     3
  0
TEXT
  5
96
  8
DATA
 62
     7
 10
-319.99999999999989
 20
-492.4525549999999
 30
0.0
 40
6.5153645833333318
  1
仕様および外観は予告なく変更されることがありますので、ご了承ください。
 41
0.7
 11
-319.99999999999989
 21
-485.93719041666662
 31
0.0
 73
     3
  0
LINE
  5
97
  8
DATA
  6
CONTINUOUS
 62
     7
 10
-159.5
 20
-200.0
 30
0.0
 11
-159.5
 21
-121.9645812374151
 31
0.0
  0
CIRCLE
  5
98
  8
DATA
  6
CONTINUOUS
 62
     7
 10
-150.0
 20
-183.0
 30
0.0
 40
2.3000000000000109
  0
LINE
  5
99
  8
DATA
  6
CONTINUOUS
 62
     7
 10
-150.8584287972802
 20
-183.85842879728031
 30
0.0
 11
-149.14157120271969
 21
-182.14157120271969
 31
0.0
  0
LINE
  5
9A
  8
DATA
  6
CONTINUOUS
 62
     7
 10
-149.14157120271969
 20
-183.8584287972802
 30
0.0
 11
-150.8584287972802
 21
-182.14157120271969
 31
0.0
  0
LINE
  5
9B
  8
DATA
  6
CONTINUOUS
 62
     7
 10
-154.75
 20
-72.0
 30
0.0
 11
-145.25
 21
-72.0
 31
0.0
  0
LINE
  5
9C
  8
DATA
  6
CONTINUOUS
 62
     7
 10
-154.75
 20
-82.0
 30
0.0
 11
-154.75
 21
-72.0
 31
0.0
  0
ARC
  5
9D
  8
DATA
  6
CONTINUOUS
 62
     7
 10
-272.02797297297099
 20
-81.824369369369663
 30
0.0
 40
117.27810448147309
 50
347.0754916853241
 51
359.91419627990967
  0
ARC
  5
9E
  8
DATA
  6
CONTINUOUS
 62
     7
 10
-70.345568517566008
 20
-127.91574166678291
 30
0.0
 40
89.604113614228197
 50
167.0595793513568
 51
171.35764532212571
  0
ARC
  5
9F
  8
DATA
  6
CONTINUOUS
 62
     7
 10
-109.4999999999994
 20
-121.9645812374151
 30
0.0
 40
50.000000000000597
 50
171.35764532212579
 51
180.0
  0
LINE
  5
A0
  8
DATA
  6
CONTINUOUS
 62
     7
 10
-145.25
 20
-82.0
 30
0.0
 11
-145.25
 21
-72.0
 31
0.0
  0
ARC
  5
A1
  8
DATA
  6
CONTINUOUS
 62
     7
 10
-27.972027027029021
 20
-81.824369369369663
 30
0.0
 40
117.27810448147309
 50
180.08580372009021
 51
192.9245083146759
  0
ARC
  5
A2
  8
DATA
  6
CONTINUOUS
 62
     7
 10
-229.65443148243401
 20
-127.91574166678291
 30
0.0
 40
89.604113614228197
 50
8.6423546778743336
 51
12.940420648643149
  0
ARC
  5
A3
  8
DATA
  6
CONTINUOUS
 62
     7
 10
-190.5000000000006
 20
-121.9645812374151
 30
0.0
 40
50.000000000000568
 50
0.0
 51
8.6423546778742093
  0
LINE
  5
A4
  8
DATA
  6
CONTINUOUS
 62
     7
 10
-154.75
 20
-76.0
 30
0.0
 11
-145.25
 21
-76.0
 31
0.0
  0
LINE
  5
A5
  8
DATA
  6
CONTINUOUS
 62
     7
 10
-154.75
 20
-78.0
 30
0.0
 11
-145.25
 21
-78.0
 31
0.0
  0
LINE
  5
A6
  8
DATA
  6
CONTINUOUS
 62
     7
 10
-154.75
 20
-80.5
 30
0.0
 11
-145.25
 21
-80.5
 31
0.0
  0
LINE
  5
A7
  8
DATA
  6
CONTINUOUS
 62
     7
 10
-154.75
 20
-82.5
 30
0.0
 11
-145.25
 21
-82.5
 31
0.0
  0
LINE
  5
A8
  8
DATA
  6
CONTINUOUS
 62
     7
 10
-153.875
 20
-72.0
 30
0.0
 11
-153.875
 21
-15.99332061070001
 31
0.0
  0
LINE
  5
A9
  8
DATA
  6
CONTINUOUS
 62
     7
 10
-153.875
 20
75.006679389312978
 30
0.0
 11
-153.875
 21
131.0
 31
0.0
  0
LINE
  5
AA
  8
DATA
  6
CONTINUOUS
 62
     7
 10
-146.125
 20
-72.0
 30
0.0
 11
-146.125
 21
-15.99332061070001
 31
0.0
  0
LINE
  5
AB
  8
DATA
  6
CONTINUOUS
 62
     7
 10
-146.125
 20
75.006679389312978
 30
0.0
 11
-146.125
 21
131.0
 31
0.0
  0
LINE
  5
AC
  8
DATA
  6
CONTINUOUS
 62
     7
 10
-154.75
 20
75.00667938929999
 30
0.0
 11
-145.25
 21
75.00667938929999
 31
0.0
  0
LINE
  5
AD
  8
DATA
  6
CONTINUOUS
 62
     7
 10
-154.75
 20
-15.99332061070001
 30
0.0
 11
-154.75
 21
75.00667938929999
 31
0.0
  0
LINE
  5
AE
  8
DATA
  6
CONTINUOUS
 62
     7
 10
-145.25
 20
-15.99332061070001
 30
0.0
 11
-145.25
 21
75.00667938929999
 31
0.0
  0
LINE
  5
AF
  8
DATA
  6
CONTINUOUS
 62
     7
 10
-157.0
 20
179.0
 30
0.0
 11
-143.0
 21
179.0
 31
0.0
  0
LINE
  5
B0
  8
DATA
  6
CONTINUOUS
 62
     7
 10
-154.75
 20
131.0
 30
0.0
 11
-154.75
 21
139.0
 31
0.0
  0
LINE
  5
B1
  8
DATA
  6
CONTINUOUS
 62
     7
 10
-145.25
 20
131.0
 30
0.0
 11
-145.25
 21
139.0
 31
0.0
  0
LINE
  5
B2
  8
DATA
  6
CONTINUOUS
 62
     7
 10
-154.75
 20
139.0
 30
0.0
 11
-154.75
 21
150.54999999999939
 31
0.0
  0
ARC
  5
B3
  8
DATA
  6
CONTINUOUS
 62
     7
 10
-299.54312796206261
 20
142.89976303317769
 30
0.0
 40
144.99508967784661
 50
3.0244466749958598
 51
8.1769856059160038
  0
ARC
  5
B4
  8
DATA
  6
CONTINUOUS
 62
     7
 10
-106.5304672068828
 20
170.63417825401669
 30
0.0
 40
50.000000002473357
 50
185.89372316661161
 51
188.1769856056101
  0
LINE
  5
B5
  8
DATA
  6
CONTINUOUS
 62
     7
 10
-145.25
 20
139.0
 30
0.0
 11
-145.25
 21
150.54999999999939
 31
0.0
  0
ARC
  5
B6
  8
DATA
  6
CONTINUOUS
 62
     7
 10
-0.4568720379373872
 20
142.89976303317769
 30
0.0
 40
144.99508967784661
 50
171.823014394084
 51
176.97555332500411
  0
ARC
  5
B7
  8
DATA
  6
CONTINUOUS
 62
     7
 10
-193.46953279311711
 20
170.63417825401669
 30
0.0
 40
50.000000002473357
 50
351.8230143943897
 51
354.10627683338839
  0
LINE
  5
B8
  8
DATA
  6
CONTINUOUS
 62
     7
 10
-154.75
 20
-11.993320610699991
 30
0.0
 11
-145.25
 21
-11.993320610699991
 31
0.0
  0
LINE
  5
B9
  8
DATA
  6
CONTINUOUS
 62
     7
 10
-154.75
 20
-9.9933206106999961
 30
0.0
 11
-145.25
 21
-9.9933206106999961
 31
0.0
  0
LINE
  5
BA
  8
DATA
  6
CONTINUOUS
 62
     7
 10
-154.75
 20
-7.4933206106999961
 30
0.0
 11
-145.25
 21
-7.4933206106999961
 31
0.0
  0
LINE
  5
BB
  8
DATA
  6
CONTINUOUS
 62
     7
 10
-154.75
 20
-5.4933206106999961
 30
0.0
 11
-145.25
 21
-5.4933206106999961
 31
0.0
  0
LINE
  5
BC
  8
DATA
  6
CONTINUOUS
 62
     7
 10
-154.75
 20
71.006679389300004
 30
0.0
 11
-145.25
 21
71.006679389300004
 31
0.0
  0
LINE
  5
BD
  8
DATA
  6
CONTINUOUS
 62
     7
 10
-154.75
 20
69.006679389300004
 30
0.0
 11
-145.25
 21
69.006679389300004
 31
0.0
  0
LINE
  5
BE
  8
DATA
  6
CONTINUOUS
 62
     7
 10
-154.75
 20
66.506679389300004
 30
0.0
 11
-145.25
 21
66.506679389300004
 31
0.0
  0
LINE
  5
BF
  8
DATA
  6
CONTINUOUS
 62
     7
 10
-154.75
 20
64.506679389300004
 30
0.0
 11
-145.25
 21
64.506679389300004
 31
0.0
  0
LINE
  5
C0
  8
DATA
  6
CONTINUOUS
 62
     7
 10
-154.75
 20
133.0
 30
0.0
 11
-145.25
 21
133.0
 31
0.0
  0
LINE
  5
C1
  8
DATA
  6
CONTINUOUS
 62
     7
 10
-154.75
 20
135.0
 30
0.0
 11
-145.25
 21
135.0
 31
0.0
  0
LINE
  5
C2
  8
DATA
  6
CONTINUOUS
 62
     7
 10
-154.75
 20
137.5
 30
0.0
 11
-145.25
 21
137.5
 31
0.0
  0
LINE
  5
C3
  8
DATA
  6
CONTINUOUS
 62
     7
 10
-154.75
 20
139.5
 30
0.0
 11
-145.25
 21
139.5
 31
0.0
  0
CIRCLE
  5
C4
  8
DATA
  6
CONTINUOUS
 62
     7
 10
-150.0
 20
250.0
 30
0.0
 40
7.0
  0
CIRCLE
  5
C5
  8
DATA
  6
CONTINUOUS
 62
     7
 10
-150.0
 20
250.0
 30
0.0
 40
1.4250000000000109
  0
CIRCLE
  5
C6
  8
DATA
  6
CONTINUOUS
 62
     7
 10
-150.0
 20
250.0
 30
0.0
 40
6.5
  0
CIRCLE
  5
C7
  8
DATA
  6
CONTINUOUS
 62
     7
 10
-150.0
 20
-249.99999999963961
 30
0.0
 40
9.5
  0
LINE
  5
C8
  8
DATA
  6
CONTINUOUS
 62
     7
 10
-153.40000000000001
 20
-239.1292615861814
 30
0.0
 11
-153.40000000000001
 21
-239.7399999996403
 31
0.0
  0
LINE
  5
C9
  8
DATA
  6
CONTINUOUS
 62
     7
 10
-146.65048818690161
 20
-239.11007476857529
 30
0.0
 11
-146.65048818690161
 21
-239.79999999963971
 31
0.0
  0
ARC
  5
CA
  8
DATA
  6
CONTINUOUS
 62
     7
 10
-150.0
 20
-247.99999999963961
 30
0.0
 40
9.5000000000000142
 50
69.354787441978644
 51
110.9709607722325
  0
ARC
  5
CB
  8
DATA
  6
CONTINUOUS
 62
     7
 10
-150.08100721030931
 20
-246.0428969325034
 30
0.0
 40
7.1233575569615804
 50
61.210873009302091
 51
117.7704885126291
  0
LINE
  5
CC
  8
DATA
  6
CONTINUOUS
 62
     7
 10
-152.80271455233409
 20
-239.45999999963959
 30
0.0
 11
-152.80271455233409
 21
-240.92284234219309
 31
0.0
  0
LINE
  5
CD
  8
DATA
  6
CONTINUOUS
 62
     7
 10
-147.19728544766591
 20
-239.52934400956059
 30
0.0
 11
-147.19728544766591
 21
-240.92284234219309
 31
0.0
  0
ARC
  5
CE
  8
DATA
  6
CONTINUOUS
 62
     7
 10
-149.9999999999992
 20
-249.99999999963919
 30
0.0
 40
7.9999999999991873
 50
62.44366095642404
 51
48.927249057893292
  0
ARC
  5
CF
  8
DATA
  6
CONTINUOUS
 62
     7
 10
-145.7115359538823
 20
-243.71677372034321
 30
0.0
 40
1.0000000000000091
 50
345.39115668930378
 51
125.9797533250055
  0
LINE
  5
D0
  8
DATA
  6
CONTINUOUS
 62
     7
 10
-159.5
 20
-200.0
 30
0.0
 11
-140.5
 21
-200.0
 31
0.0
  0
LINE
  5
D1
  8
DATA
  6
CONTINUOUS
 62
     7
 10
-156.62894943406371
 20
171.5
 30
0.0
 11
-157.0
 21
179.0
 31
0.0
  0
LINE
  5
D2
  8
DATA
  6
CONTINUOUS
 62
     7
 10
-143.37105056593629
 20
171.5
 30
0.0
 11
-143.0
 21
179.0
 31
0.0
  0
LINE
  5
D3
  8
DATA
  6
CONTINUOUS
 62
     7
 10
-140.5
 20
-200.0
 30
0.0
 11
-140.5
 21
-121.9645812374151
 31
0.0
  0
LINE
  5
D4
  8
DATA
  6
CONTINUOUS
 62
     7
 10
-154.75
 20
131.0
 30
0.0
 11
-145.24999999999989
 21
131.0
 31
0.0
  0
LINE
  5
D5
  8
DATA
  6
CONTINUOUS
 62
     7
 10
-153.875
 20
75.006679389312978
 30
0.0
 11
-146.12499999999989
 21
75.006679389312978
 31
0.0
  0
LINE
  5
D6
  8
DATA
  6
CONTINUOUS
 62
     7
 10
-154.75
 20
-15.99332061070001
 30
0.0
 11
-145.24999999999989
 21
-15.99332061070001
 31
0.0
  0
LINE
  5
D7
  8
DATA
  6
CONTINUOUS
 62
     7
 10
-156.84155043856811
 20
165.5
 30
0.0
 11
-143.15844956143189
 21
165.5
 31
0.0
  0
LINE
  5
D8
  8
DATA
  6
CONTINUOUS
 62
     7
 10
-156.84155043856811
 20
171.5
 30
0.0
 11
-143.15844956143189
 21
171.5
 31
0.0
  0
ARC
  5
D9
  8
DATA
  6
CONTINUOUS
 62
     7
 10
-156.4780592598448
 20
168.5
 30
0.0
 40
3.0219407401551659
 50
96.908494425176769
 51
263.09150557482332
  0
ARC
  5
DA
  8
DATA
  6
CONTINUOUS
 62
     7
 10
-143.5219407401552
 20
168.5
 30
0.0
 40
3.0219407401551659
 50
276.9084944251768
 51
83.091505574823245
  0
LINE
  5
DB
  8
DATA
  6
CONTINUOUS
 62
     7
 10
-153.875
 20
-72.0
 30
0.0
 11
-146.125
 21
-69.599999999999994
 31
0.0
  0
LINE
  5
DC
  8
DATA
  6
CONTINUOUS
 62
     7
 10
-153.875
 20
-69.0
 30
0.0
 11
-146.125
 21
-66.599999999999994
 31
0.0
  0
LINE
  5
DD
  8
DATA
  6
CONTINUOUS
 62
     7
 10
-153.875
 20
-66.0
 30
0.0
 11
-146.125
 21
-63.600000000000001
 31
0.0
  0
LINE
  5
DE
  8
DATA
  6
CONTINUOUS
 62
     7
 10
-153.875
 20
-63.0
 30
0.0
 11
-146.125
 21
-60.600000000000001
 31
0.0
  0
LINE
  5
DF
  8
DATA
  6
CONTINUOUS
 62
     7
 10
-153.875
 20
-60.0
 30
0.0
 11
-146.125
 21
-57.600000000000001
 31
0.0
  0
LINE
  5
E0
  8
DATA
  6
CONTINUOUS
 62
     7
 10
-153.875
 20
-57.0
 30
0.0
 11
-146.125
 21
-54.600000000000001
 31
0.0
  0
LINE
  5
E1
  8
DATA
  6
CONTINUOUS
 62
     7
 10
-153.875
 20
-54.0
 30
0.0
 11
-146.125
 21
-51.600000000000001
 31
0.0
  0
LINE
  5
E2
  8
DATA
  6
CONTINUOUS
 62
     7
 10
-153.875
 20
-51.0
 30
0.0
 11
-146.125
 21
-48.600000000000001
 31
0.0
  0
LINE
  5
E3
  8
DATA
  6
CONTINUOUS
 62
     7
 10
-153.875
 20
-48.0
 30
0.0
 11
-146.125
 21
-45.600000000000001
 31
0.0
  0
LINE
  5
E4
  8
DATA
  6
CONTINUOUS
 62
     7
 10
-153.875
 20
-45.0
 30
0.0
 11
-146.125
 21
-42.600000000000001
 31
0.0
  0
LINE
  5
E5
  8
DATA
  6
CONTINUOUS
 62
     7
 10
-153.875
 20
-42.0
 30
0.0
 11
-146.125
 21
-39.600000000000001
 31
0.0
  0
LINE
  5
E6
  8
DATA
  6
CONTINUOUS
 62
     7
 10
-153.875
 20
-39.0
 30
0.0
 11
-146.125
 21
-36.600000000000001
 31
0.0
  0
LINE
  5
E7
  8
DATA
  6
CONTINUOUS
 62
     7
 10
-153.875
 20
-36.0
 30
0.0
 11
-146.125
 21
-33.600000000000001
 31
0.0
  0
LINE
  5
E8
  8
DATA
  6
CONTINUOUS
 62
     7
 10
-153.875
 20
-33.0
 30
0.0
 11
-146.125
 21
-30.600000000000001
 31
0.0
  0
LINE
  5
E9
  8
DATA
  6
CONTINUOUS
 62
     7
 10
-153.875
 20
-30.0
 30
0.0
 11
-146.125
 21
-27.600000000000001
 31
0.0
  0
LINE
  5
EA
  8
DATA
  6
CONTINUOUS
 62
     7
 10
-153.875
 20
-27.0
 30
0.0
 11
-146.125
 21
-24.600000000000001
 31
0.0
  0
LINE
  5
EB
  8
DATA
  6
CONTINUOUS
 62
     7
 10
-153.875
 20
-24.0
 30
0.0
 11
-146.125
 21
-21.600000000000001
 31
0.0
  0
LINE
  5
EC
  8
DATA
  6
CONTINUOUS
 62
     7
 10
-153.875
 20
-21.0
 30
0.0
 11
-146.125
 21
-18.600000000000001
 31
0.0
  0
LINE
  5
ED
  8
DATA
  6
CONTINUOUS
 62
     7
 10
-153.875
 20
-18.0
 30
0.0
 11
-147.3950978053854
 21
-15.99332061070001
 31
0.0
  0
LINE
  5
EE
  8
DATA
  6
CONTINUOUS
 62
     7
 10
-153.875
 20
75.009999999999977
 30
0.0
 11
-146.125
 21
77.409999999999982
 31
0.0
  0
LINE
  5
EF
  8
DATA
  6
CONTINUOUS
 62
     7
 10
-153.875
 20
78.009999999999977
 30
0.0
 11
-146.125
 21
80.409999999999982
 31
0.0
  0
LINE
  5
F0
  8
DATA
  6
CONTINUOUS
 62
     7
 10
-153.875
 20
81.009999999999977
 30
0.0
 11
-146.125
 21
83.409999999999997
 31
0.0
  0
LINE
  5
F1
  8
DATA
  6
CONTINUOUS
 62
     7
 10
-153.875
 20
84.009999999999977
 30
0.0
 11
-146.125
 21
86.409999999999982
 31
0.0
  0
LINE
  5
F2
  8
DATA
  6
CONTINUOUS
 62
     7
 10
-153.875
 20
87.009999999999977
 30
0.0
 11
-146.125
 21
89.409999999999982
 31
0.0
  0
LINE
  5
F3
  8
DATA
  6
CONTINUOUS
 62
     7
 10
-153.875
 20
90.009999999999977
 30
0.0
 11
-146.125
 21
92.409999999999997
 31
0.0
  0
LINE
  5
F4
  8
DATA
  6
CONTINUOUS
 62
     7
 10
-153.875
 20
93.010000000000005
 30
0.0
 11
-146.125
 21
95.409999999999997
 31
0.0
  0
LINE
  5
F5
  8
DATA
  6
CONTINUOUS
 62
     7
 10
-153.875
 20
96.010000000000005
 30
0.0
 11
-146.125
 21
98.410000000000011
 31
0.0
  0
LINE
  5
F6
  8
DATA
  6
CONTINUOUS
 62
     7
 10
-153.875
 20
99.010000000000005
 30
0.0
 11
-146.125
 21
101.41
 31
0.0
  0
LINE
  5
F7
  8
DATA
  6
CONTINUOUS
 62
     7
 10
-153.875
 20
102.01000000000001
 30
0.0
 11
-146.125
 21
104.41
 31
0.0
  0
LINE
  5
F8
  8
DATA
  6
CONTINUOUS
 62
     7
 10
-153.875
 20
105.01000000000001
 30
0.0
 11
-146.125
 21
107.41
 31
0.0
  0
LINE
  5
F9
  8
DATA
  6
CONTINUOUS
 62
     7
 10
-153.875
 20
108.01000000000001
 30
0.0
 11
-146.125
 21
110.41
 31
0.0
  0
LINE
  5
FA
  8
DATA
  6
CONTINUOUS
 62
     7
 10
-153.875
 20
111.01000000000001
 30
0.0
 11
-146.125
 21
113.41
 31
0.0
  0
LINE
  5
FB
  8
DATA
  6
CONTINUOUS
 62
     7
 10
-153.875
 20
114.01000000000001
 30
0.0
 11
-146.125
 21
116.41
 31
0.0
  0
LINE
  5
FC
  8
DATA
  6
CONTINUOUS
 62
     7
 10
-153.875
 20
117.01000000000001
 30
0.0
 11
-146.125
 21
119.41
 31
0.0
  0
LINE
  5
FD
  8
DATA
  6
CONTINUOUS
 62
     7
 10
-153.875
 20
120.01000000000001
 30
0.0
 11
-146.125
 21
122.41
 31
0.0
  0
LINE
  5
FE
  8
DATA
  6
CONTINUOUS
 62
     7
 10
-153.875
 20
123.01000000000001
 30
0.0
 11
-146.125
 21
125.41
 31
0.0
  0
LINE
  5
FF
  8
DATA
  6
CONTINUOUS
 62
     7
 10
-153.875
 20
126.01000000000001
 30
0.0
 11
-146.125
 21
128.41
 31
0.0
  0
LINE
  5
100
  8
DATA
  6
CONTINUOUS
 62
     7
 10
-153.875
 20
129.00999999999999
 30
0.0
 11
-147.44895833333331
 21
131.0
 31
0.0
  0
CIRCLE
  5
101
  8
DATA
  6
CONTINUOUS
 62
     7
 10
-150.0
 20
250.0
 30
0.0
 40
9.5
  0
LINE
  5
102
  8
DATA
  6
CONTINUOUS
 62
     7
 10
-9.5
 20
-200.0
 30
0.0
 11
-9.5
 21
-121.9645812374151
 31
0.0
  0
LINE
  5
103
  8
DATA
  6
CONTINUOUS
 62
     7
 10
-4.75
 20
-72.0
 30
0.0
 11
4.75
 21
-72.0
 31
0.0
  0
LINE
  5
104
  8
DATA
  6
CONTINUOUS
 62
     7
 10
-4.75
 20
-82.0
 30
0.0
 11
-4.75
 21
-72.0
 31
0.0
  0
ARC
  5
105
  8
DATA
  6
CONTINUOUS
 62
     7
 10
-122.027972972971
 20
-81.824369369369663
 30
0.0
 40
117.27810448147309
 50
347.0754916853241
 51
359.91419627990967
  0
ARC
  5
106
  8
DATA
  6
CONTINUOUS
 62
     7
 10
79.654431482433992
 20
-127.91574166678291
 30
0.0
 40
89.604113614228197
 50
167.0595793513568
 51
171.35764532212571
  0
ARC
  5
107
  8
DATA
  6
CONTINUOUS
 62
     7
 10
40.500000000000597
 20
-121.9645812374151
 30
0.0
 40
50.000000000000597
 50
171.35764532212579
 51
180.0
  0
LINE
  5
108
  8
DATA
  6
CONTINUOUS
 62
     7
 10
4.75
 20
-82.0
 30
0.0
 11
4.75
 21
-72.0
 31
0.0
  0
ARC
  5
109
  8
DATA
  6
CONTINUOUS
 62
     7
 10
122.027972972971
 20
-81.824369369369663
 30
0.0
 40
117.27810448147309
 50
180.08580372009021
 51
192.9245083146759
  0
ARC
  5
10A
  8
DATA
  6
CONTINUOUS
 62
     7
 10
-79.654431482433992
 20
-127.91574166678291
 30
0.0
 40
89.604113614228197
 50
8.6423546778743336
 51
12.940420648643149
  0
ARC
  5
10B
  8
DATA
  6
CONTINUOUS
 62
     7
 10
-40.500000000000568
 20
-121.9645812374151
 30
0.0
 40
50.000000000000568
 50
0.0
 51
8.6423546778742093
  0
LINE
  5
10C
  8
DATA
  6
CONTINUOUS
 62
     7
 10
-4.75
 20
-76.0
 30
0.0
 11
4.75
 21
-76.0
 31
0.0
  0
LINE
  5
10D
  8
DATA
  6
CONTINUOUS
 62
     7
 10
-4.75
 20
-78.0
 30
0.0
 11
4.75
 21
-78.0
 31
0.0
  0
LINE
  5
10E
  8
DATA
  6
CONTINUOUS
 62
     7
 10
-4.75
 20
-80.5
 30
0.0
 11
4.75
 21
-80.5
 31
0.0
  0
LINE
  5
10F
  8
DATA
  6
CONTINUOUS
 62
     7
 10
-4.75
 20
-82.5
 30
0.0
 11
4.75
 21
-82.5
 31
0.0
  0
LINE
  5
110
  8
DATA
  6
CONTINUOUS
 62
     7
 10
-3.875
 20
-72.0
 30
0.0
 11
-3.875
 21
-15.99332061070001
 31
0.0
  0
LINE
  5
111
  8
DATA
  6
CONTINUOUS
 62
     7
 10
-3.875
 20
75.006679389312978
 30
0.0
 11
-3.875
 21
102.00543778793821
 31
0.0
  0
LINE
  5
112
  8
DATA
  6
CONTINUOUS
 62
     7
 10
3.875
 20
-72.0
 30
0.0
 11
3.875
 21
-15.99332061070001
 31
0.0
  0
LINE
  5
113
  8
DATA
  6
CONTINUOUS
 62
     7
 10
3.875
 20
75.006679389312978
 30
0.0
 11
3.875
 21
98.795282679546659
 31
0.0
  0
LINE
  5
114
  8
DATA
  6
CONTINUOUS
 62
     7
 10
-4.75
 20
75.00667938929999
 30
0.0
 11
4.75
 21
75.00667938929999
 31
0.0
  0
LINE
  5
115
  8
DATA
  6
CONTINUOUS
 62
     7
 10
-4.75
 20
-15.99332061070001
 30
0.0
 11
-4.75
 21
75.00667938929999
 31
0.0
  0
LINE
  5
116
  8
DATA
  6
CONTINUOUS
 62
     7
 10
4.75
 20
-15.99332061070001
 30
0.0
 11
4.75
 21
75.00667938929999
 31
0.0
  0
LINE
  5
117
  8
DATA
  6
CONTINUOUS
 62
     7
 10
48.47533744189014
 20
167.0594638597062
 30
0.0
 11
58.374832378501779
 21
157.15996892309451
 31
0.0
  0
LINE
  5
118
  8
DATA
  6
CONTINUOUS
 62
     7
 10
16.125202202605681
 20
131.52734810508221
 30
0.0
 11
21.782056452098089
 21
137.18420235457461
 31
0.0
  0
LINE
  5
119
  8
DATA
  6
CONTINUOUS
 62
     7
 10
22.842716623877891
 20
124.80983368381
 30
0.0
 11
28.499570873370299
 21
130.46668793330241
 31
0.0
  0
LINE
  5
11A
  8
DATA
  6
CONTINUOUS
 62
     7
 10
21.782056452098089
 20
137.18420235457461
 30
0.0
 11
29.949139774802308
 21
145.35128567727881
 31
0.0
  0
ARC
  5
11B
  8
DATA
  6
CONTINUOUS
 62
     7
 10
-77.844597313307062
 20
242.32595389154119
 30
0.0
 40
144.99508967784641
 50
318.02444667499577
 51
323.17698560591589
  0
ARC
  5
11C
  8
DATA
  6
CONTINUOUS
 62
     7
 10
78.247157036437628
 20
125.4565856915936
 30
0.0
 40
50.000000002473392
 50
140.89372316661169
 51
143.17698560561021
  0
LINE
  5
11D
  8
DATA
  6
CONTINUOUS
 62
     7
 10
28.499570873370299
 20
130.46668793330241
 30
0.0
 11
36.666654196074489
 21
138.63377125600661
 31
0.0
  0
ARC
  5
11E
  8
DATA
  6
CONTINUOUS
 62
     7
 10
133.6413224103371
 20
30.840034167897009
 30
0.0
 40
144.99508967784669
 50
126.8230143940841
 51
131.9755533250042
  0
ARC
  5
11F
  8
DATA
  6
CONTINUOUS
 62
     7
 10
16.771954210389278
 20
186.93178851764179
 30
0.0
 40
50.000000002473321
 50
306.8230143943897
 51
309.10627683338839
  0
LINE
  5
120
  8
DATA
  6
CONTINUOUS
 62
     7
 10
-4.75
 20
-11.993320610699991
 30
0.0
 11
4.75
 21
-11.993320610699991
 31
0.0
  0
LINE
  5
121
  8
DATA
  6
CONTINUOUS
 62
     7
 10
-4.75
 20
-9.9933206106999961
 30
0.0
 11
4.75
 21
-9.9933206106999961
 31
0.0
  0
LINE
  5
122
  8
DATA
  6
CONTINUOUS
 62
     7
 10
-4.75
 20
-7.4933206106999961
 30
0.0
 11
4.75
 21
-7.4933206106999961
 31
0.0
  0
LINE
  5
123
  8
DATA
  6
CONTINUOUS
 62
     7
 10
-4.75
 20
-5.4933206106999961
 30
0.0
 11
4.75
 21
-5.4933206106999961
 31
0.0
  0
LINE
  5
124
  8
DATA
  6
CONTINUOUS
 62
     7
 10
-4.75
 20
71.006679389300004
 30
0.0
 11
4.75
 21
71.006679389300004
 31
0.0
  0
LINE
  5
125
  8
DATA
  6
CONTINUOUS
 62
     7
 10
-4.75
 20
69.006679389300004
 30
0.0
 11
4.75
 21
69.006679389300004
 31
0.0
  0
LINE
  5
126
  8
DATA
  6
CONTINUOUS
 62
     7
 10
-4.75
 20
66.506679389300004
 30
0.0
 11
4.75
 21
66.506679389300004
 31
0.0
  0
LINE
  5
127
  8
DATA
  6
CONTINUOUS
 62
     7
 10
-4.75
 20
64.506679389300004
 30
0.0
 11
4.75
 21
64.506679389300004
 31
0.0
  0
LINE
  5
128
  8
DATA
  6
CONTINUOUS
 62
     7
 10
17.539415764978791
 20
132.94156166745529
 30
0.0
 11
24.256930186251001
 21
126.2240472461831
 31
0.0
  0
LINE
  5
129
  8
DATA
  6
CONTINUOUS
 62
     7
 10
18.95362932735188
 20
134.3557752298284
 30
0.0
 11
25.67114374862409
 21
127.6382608085562
 31
0.0
  0
LINE
  5
12A
  8
DATA
  6
CONTINUOUS
 62
     7
 10
20.72139628031826
 20
136.12354218279481
 30
0.0
 11
27.43891070159048
 21
129.40602776152261
 31
0.0
  0
LINE
  5
12B
  8
DATA
  6
CONTINUOUS
 62
     7
 10
22.13560984269137
 20
137.5377557451678
 30
0.0
 11
28.85312426396359
 21
130.8202413238956
 31
0.0
  0
LINE
  5
12C
  8
DATA
  6
CONTINUOUS
 62
     7
 10
-9.5
 20
-200.0
 30
0.0
 11
9.5
 21
-200.0
 31
0.0
  0
LINE
  5
12D
  8
DATA
  6
CONTINUOUS
 62
     7
 10
43.434408954327743
 20
161.4937906294704
 30
0.0
 11
48.47533744189014
 21
167.0594638597062
 31
0.0
  0
LINE
  5
12E
  8
DATA
  6
CONTINUOUS
 62
     7
 10
52.809159148266012
 20
152.1190404355321
 30
0.0
 11
58.374832378501779
 21
157.15996892309451
 31
0.0
  0
LINE
  5
12F
  8
DATA
  6
CONTINUOUS
 62
     7
 10
9.5
 20
-200.0
 30
0.0
 11
9.5
 21
-121.9645812374151
 31
0.0
  0
LINE
  5
130
  8
DATA
  6
CONTINUOUS
 62
     7
 10
16.125202202605681
 20
131.52734810508221
 30
0.0
 11
22.84271662387793
 21
124.80983368381
 31
0.0
  0
LINE
  5
131
  8
DATA
  6
CONTINUOUS
 62
     7
 10
-3.875
 20
75.006679389312978
 30
0.0
 11
3.875000000000056
 21
75.006679389312978
 31
0.0
  0
LINE
  5
132
  8
DATA
  6
CONTINUOUS
 62
     7
 10
-4.75
 20
-15.99332061070001
 30
0.0
 11
4.7500000000000284
 21
-15.99332061070001
 31
0.0
  0
LINE
  5
133
  8
DATA
  6
CONTINUOUS
 62
     7
 10
39.041436655236389
 20
157.40148155432331
 30
0.0
 11
48.716850073118849
 21
147.72606813644069
 31
0.0
  0
LINE
  5
134
  8
DATA
  6
CONTINUOUS
 62
     7
 10
43.284077342355651
 20
161.6441222414426
 30
0.0
 11
52.959490760238133
 21
151.96870882356001
 31
0.0
  0
ARC
  5
135
  8
DATA
  6
CONTINUOUS
 62
     7
 10
41.419784076172732
 20
159.26577482050621
 30
0.0
 40
3.021940740155169
 50
51.908494425177423
 51
218.0915055748228
  0
ARC
  5
136
  8
DATA
  6
CONTINUOUS
 62
     7
 10
50.581143339301818
 20
150.104415557377
 30
0.0
 40
3.021940740155161
 50
231.9084944251768
 51
38.091505574823607
  0
LINE
  5
137
  8
DATA
  6
CONTINUOUS
 62
     7
 10
-3.875
 20
-72.0
 30
0.0
 11
3.875
 21
-69.599999999999994
 31
0.0
  0
LINE
  5
138
  8
DATA
  6
CONTINUOUS
 62
     7
 10
-3.875
 20
-69.0
 30
0.0
 11
3.875
 21
-66.599999999999994
 31
0.0
  0
LINE
  5
139
  8
DATA
  6
CONTINUOUS
 62
     7
 10
-3.875
 20
-66.0
 30
0.0
 11
3.875
 21
-63.600000000000001
 31
0.0
  0
LINE
  5
13A
  8
DATA
  6
CONTINUOUS
 62
     7
 10
-3.875
 20
-63.0
 30
0.0
 11
3.875
 21
-60.600000000000001
 31
0.0
  0
LINE
  5
13B
  8
DATA
  6
CONTINUOUS
 62
     7
 10
-3.875
 20
-60.0
 30
0.0
 11
3.875
 21
-57.600000000000001
 31
0.0
  0
LINE
  5
13C
  8
DATA
  6
CONTINUOUS
 62
     7
 10
-3.875
 20
-57.0
 30
0.0
 11
3.875
 21
-54.600000000000001
 31
0.0
  0
LINE
  5
13D
  8
DATA
  6
CONTINUOUS
 62
     7
 10
-3.875
 20
-54.0
 30
0.0
 11
3.875
 21
-51.600000000000001
 31
0.0
  0
LINE
  5
13E
  8
DATA
  6
CONTINUOUS
 62
     7
 10
-3.875
 20
-51.0
 30
0.0
 11
3.875
 21
-48.600000000000001
 31
0.0
  0
LINE
  5
13F
  8
DATA
  6
CONTINUOUS
 62
     7
 10
-3.875
 20
-48.0
 30
0.0
 11
3.875
 21
-45.600000000000001
 31
0.0
  0
LINE
  5
140
  8
DATA
  6
CONTINUOUS
 62
     7
 10
-3.875
 20
-45.0
 30
0.0
 11
3.875
 21
-42.600000000000001
 31
0.0
  0
LINE
  5
141
  8
DATA
  6
CONTINUOUS
 62
     7
 10
-3.875
 20
-42.0
 30
0.0
 11
3.875
 21
-39.600000000000001
 31
0.0
  0
LINE
  5
142
  8
DATA
  6
CONTINUOUS
 62
     7
 10
-3.875
 20
-39.0
 30
0.0
 11
3.875
 21
-36.600000000000001
 31
0.0
  0
LINE
  5
143
  8
DATA
  6
CONTINUOUS
 62
     7
 10
-3.875
 20
-36.0
 30
0.0
 11
3.875
 21
-33.600000000000001
 31
0.0
  0
LINE
  5
144
  8
DATA
  6
CONTINUOUS
 62
     7
 10
-3.875
 20
-33.0
 30
0.0
 11
3.875
 21
-30.600000000000001
 31
0.0
  0
LINE
  5
145
  8
DATA
  6
CONTINUOUS
 62
     7
 10
-3.875
 20
-30.0
 30
0.0
 11
3.875
 21
-27.600000000000001
 31
0.0
  0
LINE
  5
146
  8
DATA
  6
CONTINUOUS
 62
     7
 10
-3.875
 20
-27.0
 30
0.0
 11
3.875
 21
-24.600000000000001
 31
0.0
  0
LINE
  5
147
  8
DATA
  6
CONTINUOUS
 62
     7
 10
-3.875
 20
-24.0
 30
0.0
 11
3.875
 21
-21.600000000000001
 31
0.0
  0
LINE
  5
148
  8
DATA
  6
CONTINUOUS
 62
     7
 10
-3.875
 20
-21.0
 30
0.0
 11
3.875
 21
-18.600000000000001
 31
0.0
  0
LINE
  5
149
  8
DATA
  6
CONTINUOUS
 62
     7
 10
-3.875
 20
-18.0
 30
0.0
 11
2.6049021946145672
 21
-15.99332061070001
 31
0.0
  0
LINE
  5
14A
  8
DATA
  6
CONTINUOUS
 62
     7
 10
-3.875
 20
75.009999999999977
 30
0.0
 11
3.875
 21
77.409999999999982
 31
0.0
  0
LINE
  5
14B
  8
DATA
  6
CONTINUOUS
 62
     7
 10
-3.875
 20
78.009999999999977
 30
0.0
 11
3.875
 21
80.409999999999982
 31
0.0
  0
LINE
  5
14C
  8
DATA
  6
CONTINUOUS
 62
     7
 10
-3.875
 20
81.009999999999977
 30
0.0
 11
3.875
 21
83.409999999999997
 31
0.0
  0
LINE
  5
14D
  8
DATA
  6
CONTINUOUS
 62
     7
 10
-3.875
 20
84.009999999999977
 30
0.0
 11
3.875
 21
86.409999999999982
 31
0.0
  0
LINE
  5
14E
  8
DATA
  6
CONTINUOUS
 62
     7
 10
-3.875
 20
87.009999999999977
 30
0.0
 11
3.875
 21
89.409999999999982
 31
0.0
  0
LINE
  5
14F
  8
DATA
  6
CONTINUOUS
 62
     7
 10
-3.875
 20
90.009999999999977
 30
0.0
 11
3.875
 21
92.409999999999997
 31
0.0
  0
LINE
  5
150
  8
DATA
  6
CONTINUOUS
 62
     7
 10
-3.875
 20
93.010000000000005
 30
0.0
 11
3.875
 21
95.409999999999997
 31
0.0
  0
LINE
  5
151
  8
DATA
  6
CONTINUOUS
 62
     7
 10
-3.875
 20
96.010000000000005
 30
0.0
 11
3.875
 21
98.410000000000011
 31
0.0
  0
LINE
  5
152
  8
DATA
  6
CONTINUOUS
 62
     7
 10
-3.875
 20
99.010000000000005
 30
0.0
 11
3.875
 21
101.41
 31
0.0
  0
LINE
  5
153
  8
DATA
  6
CONTINUOUS
 62
     7
 10
-1.0014532898224191
 20
112.33426142432251
 30
0.0
 11
6.3614978225679932
 21
108.4532970448852
 31
0.0
  0
LINE
  5
154
  8
DATA
  6
CONTINUOUS
 62
     7
 10
0.5880789224975671
 20
114.5992491026856
 30
0.0
 11
7.8551779716621049
 21
110.7688077319437
 31
0.0
  0
LINE
  5
155
  8
DATA
  6
CONTINUOUS
 62
     7
 10
2.6088560802248439
 20
116.77356511562481
 30
0.0
 11
9.7859899092682792
 21
112.9905438362768
 31
0.0
  0
LINE
  5
156
  8
DATA
  6
CONTINUOUS
 62
     7
 10
4.730176423784485
 20
118.89488545918449
 30
0.0
 11
11.90731025282793
 21
115.1118641798365
 31
0.0
  0
LINE
  5
157
  8
DATA
  6
CONTINUOUS
 62
     7
 10
6.8514967673441269
 20
121.0162058027441
 30
0.0
 11
14.028630596387559
 21
117.2331845233962
 31
0.0
  0
LINE
  5
158
  8
DATA
  6
CONTINUOUS
 62
     7
 10
8.9728171109037671
 20
123.1375261463038
 30
0.0
 11
16.14995093994721
 21
119.35450486695581
 31
0.0
  0
LINE
  5
159
  8
DATA
  6
CONTINUOUS
 62
     7
 10
11.09413745446339
 20
125.2588464898634
 30
0.0
 11
18.271271283506849
 21
121.4758252105154
 31
0.0
  0
LINE
  5
15A
  8
DATA
  6
CONTINUOUS
 62
     7
 10
13.21545779802304
 20
127.3801668334231
 30
0.0
 11
20.392591627066508
 21
123.5971455540751
 31
0.0
  0
LINE
  5
15B
  8
DATA
  6
CONTINUOUS
 62
     7
 10
15.33677814158268
 20
129.50148717698269
 30
0.0
 11
21.287818274831238
 21
126.36473203285669
 31
0.0
  0
LINE
  5
15C
  8
DATA
  6
CONTINUOUS
 62
     7
 10
16.743920636143908
 20
130.90862967154399
 30
0.0
 11
1.9828643762690501
 21
116.1475734116691
 31
0.0
  0
LINE
  5
15D
  8
DATA
  6
CONTINUOUS
 62
     7
 10
22.223998190339671
 20
125.4285521173482
 30
0.0
 11
9.7328643762690401
 21
112.9374183032776
 31
0.0
  0
ARC
  5
15E
  8
DATA
  6
CONTINUOUS
 62
     7
 10
16.125
 20
102.00543778793821
 30
0.0
 40
20.0
 50
135.0
 51
180.0
  0
ARC
  5
15F
  8
DATA
  6
CONTINUOUS
 62
     7
 10
23.875
 20
98.795282679546659
 30
0.0
 40
20.000000000000011
 50
135.0
 51
180.0
  0
LINE
  5
160
  8
DATA
  6
CONTINUOUS
 62
     7
 10
-3.875
 20
102.01000000000001
 30
0.0
 11
4.761763304491109
 21
104.68461057171331
 31
0.0
  0
LINE
  5
161
  8
DATA
  6
CONTINUOUS
 62
     7
 10
90.5
 20
-200.0
 30
0.0
 11
90.5
 21
-121.9645812374151
 31
0.0
  0
LINE
  5
162
  8
DATA
  6
CONTINUOUS
 62
     7
 10
95.25
 20
-72.0
 30
0.0
 11
104.75
 21
-72.0
 31
0.0
  0
LINE
  5
163
  8
DATA
  6
CONTINUOUS
 62
     7
 10
95.25
 20
-82.0
 30
0.0
 11
95.25
 21
-72.0
 31
0.0
  0
ARC
  5
164
  8
DATA
  6
CONTINUOUS
 62
     7
 10
-22.027972972970989
 20
-81.824369369369663
 30
0.0
 40
117.27810448147309
 50
347.0754916853241
 51
359.91419627990967
  0
ARC
  5
165
  8
DATA
  6
CONTINUOUS
 62
     7
 10
179.65443148243401
 20
-127.91574166678291
 30
0.0
 40
89.604113614228197
 50
167.0595793513568
 51
171.35764532212571
  0
ARC
  5
166
  8
DATA
  6
CONTINUOUS
 62
     7
 10
140.5000000000006
 20
-121.9645812374151
 30
0.0
 40
50.000000000000597
 50
171.35764532212579
 51
180.0
  0
LINE
  5
167
  8
DATA
  6
CONTINUOUS
 62
     7
 10
104.75
 20
-82.0
 30
0.0
 11
104.75
 21
-72.0
 31
0.0
  0
ARC
  5
168
  8
DATA
  6
CONTINUOUS
 62
     7
 10
222.02797297297101
 20
-81.824369369369663
 30
0.0
 40
117.27810448147309
 50
180.08580372009021
 51
192.9245083146759
  0
ARC
  5
169
  8
DATA
  6
CONTINUOUS
 62
     7
 10
20.345568517566001
 20
-127.91574166678291
 30
0.0
 40
89.604113614228197
 50
8.6423546778743336
 51
12.940420648643149
  0
ARC
  5
16A
  8
DATA
  6
CONTINUOUS
 62
     7
 10
59.499999999999417
 20
-121.9645812374151
 30
0.0
 40
50.000000000000568
 50
0.0
 51
8.6423546778742093
  0
LINE
  5
16B
  8
DATA
  6
CONTINUOUS
 62
     7
 10
95.25
 20
-76.0
 30
0.0
 11
104.75
 21
-76.0
 31
0.0
  0
LINE
  5
16C
  8
DATA
  6
CONTINUOUS
 62
     7
 10
95.25
 20
-78.0
 30
0.0
 11
104.75
 21
-78.0
 31
0.0
  0
LINE
  5
16D
  8
DATA
  6
CONTINUOUS
 62
     7
 10
95.25
 20
-80.5
 30
0.0
 11
104.75
 21
-80.5
 31
0.0
  0
LINE
  5
16E
  8
DATA
  6
CONTINUOUS
 62
     7
 10
95.25
 20
-82.5
 30
0.0
 11
104.75
 21
-82.5
 31
0.0
  0
LINE
  5
16F
  8
DATA
  6
CONTINUOUS
 62
     7
 10
96.125
 20
-72.0
 30
0.0
 11
96.125
 21
-44.757895675058563
 31
0.0
  0
LINE
  5
170
  8
DATA
  6
CONTINUOUS
 62
     7
 10
189.70070164341249
 20
57.102077215815598
 30
0.0
 11
229.29395834838181
 21
96.695333920784876
 31
0.0
  0
LINE
  5
171
  8
DATA
  6
CONTINUOUS
 62
     7
 10
103.875
 20
-72.0
 30
0.0
 11
103.875
 21
-47.968050783450451
 31
0.0
  0
LINE
  5
172
  8
DATA
  6
CONTINUOUS
 62
     7
 10
195.18077919760839
 20
51.621999661619853
 30
0.0
 11
234.77403590257759
 21
91.215256366589145
 31
0.0
  0
LINE
  5
173
  8
DATA
  6
CONTINUOUS
 62
     7
 10
189.0819832098652
 20
57.720795649344652
 30
0.0
 11
195.7994976311374
 21
51.003281228072453
 31
0.0
  0
LINE
  5
174
  8
DATA
  6
CONTINUOUS
 62
     7
 10
124.7352661218893
 20
-6.6259214386311811
 30
0.0
 11
189.0819832098652
 21
57.720795649344652
 31
0.0
  0
LINE
  5
175
  8
DATA
  6
CONTINUOUS
 62
     7
 10
131.45278054316151
 20
-13.34343585990338
 30
0.0
 11
195.7994976311374
 21
51.003281228072453
 31
0.0
  0
LINE
  5
176
  8
DATA
  6
CONTINUOUS
 62
     7
 10
261.02537515412808
 20
132.8461681089471
 30
0.0
 11
270.92487009073989
 21
122.94667317233539
 31
0.0
  0
LINE
  5
177
  8
DATA
  6
CONTINUOUS
 62
     7
 10
228.67523991484359
 20
97.314052354323124
 30
0.0
 11
234.33209416433601
 21
102.97090660381539
 31
0.0
  0
LINE
  5
178
  8
DATA
  6
CONTINUOUS
 62
     7
 10
235.39275433611579
 20
90.596537933050925
 30
0.0
 11
241.04960858560821
 21
96.25339218254328
 31
0.0
  0
LINE
  5
179
  8
DATA
  6
CONTINUOUS
 62
     7
 10
234.33209416433601
 20
102.97090660381539
 30
0.0
 11
242.49917748704021
 21
111.13798992651969
 31
0.0
  0
ARC
  5
17A
  8
DATA
  6
CONTINUOUS
 62
     7
 10
134.70544039893059
 20
208.11265814078209
 30
0.0
 40
144.99508967784661
 50
318.02444667499589
 51
323.176985605916
  0
ARC
  5
17B
  8
DATA
  6
CONTINUOUS
 62
     7
 10
290.79719474867551
 20
91.243289940834529
 30
0.0
 40
50.000000002473357
 50
140.89372316661161
 51
143.17698560561021
  0
LINE
  5
17C
  8
DATA
  6
CONTINUOUS
 62
     7
 10
241.04960858560821
 20
96.25339218254328
 30
0.0
 11
249.21669190831241
 21
104.4204755052475
 31
0.0
  0
ARC
  5
17D
  8
DATA
  6
CONTINUOUS
 62
     7
 10
346.19136012257491
 20
-3.3732615828620989
 30
0.0
 40
144.99508967784661
 50
126.823014394084
 51
131.97555332500411
  0
ARC
  5
17E
  8
DATA
  6
CONTINUOUS
 62
     7
 10
229.32199192262721
 20
152.7184927668828
 30
0.0
 40
50.000000002473357
 50
306.82301439438982
 51
309.10627683338839
  0
LINE
  5
17F
  8
DATA
  6
CONTINUOUS
 62
     7
 10
127.56369324663549
 20
-3.7974943138849819
 30
0.0
 11
134.28120766790781
 21
-10.515008735157179
 31
0.0
  0
LINE
  5
180
  8
DATA
  6
CONTINUOUS
 62
     7
 10
128.9779068090086
 20
-2.383280751511875
 30
0.0
 11
135.6954212302808
 21
-9.1007951727840801
 31
0.0
  0
LINE
  5
181
  8
DATA
  6
CONTINUOUS
 62
     7
 10
130.74567376197501
 20
-0.6155137985455214
 30
0.0
 11
137.46318818324721
 21
-7.3330282198177121
 31
0.0
  0
LINE
  5
182
  8
DATA
  6
CONTINUOUS
 62
     7
 10
132.15988732434809
 20
0.7986997638275853
 30
0.0
 11
138.87740174562029
 21
-5.9188146574446128
 31
0.0
  0
LINE
  5
183
  8
DATA
  6
CONTINUOUS
 62
     7
 10
186.25355608511899
 20
54.89236852459846
 30
0.0
 11
192.97107050639119
 21
48.174854103326261
 31
0.0
  0
LINE
  5
184
  8
DATA
  6
CONTINUOUS
 62
     7
 10
184.8393425227458
 20
53.478154962225382
 30
0.0
 11
191.55685694401811
 21
46.760640540953169
 31
0.0
  0
LINE
  5
185
  8
DATA
  6
CONTINUOUS
 62
     7
 10
183.0715755697795
 20
51.710388009258999
 30
0.0
 11
189.78908999105161
 21
44.992873587986807
 31
0.0
  0
LINE
  5
186
  8
DATA
  6
CONTINUOUS
 62
     7
 10
181.65736200740639
 20
50.296174446885921
 30
0.0
 11
188.37487642867859
 21
43.578660025613722
 31
0.0
  0
LINE
  5
187
  8
DATA
  6
CONTINUOUS
 62
     7
 10
230.08945347721669
 20
98.728265916696216
 30
0.0
 11
236.80696789848889
 21
92.010751495424003
 31
0.0
  0
LINE
  5
188
  8
DATA
  6
CONTINUOUS
 62
     7
 10
231.5036670395898
 20
100.14247947906929
 30
0.0
 11
238.221181460862
 21
93.424965057797067
 31
0.0
  0
LINE
  5
189
  8
DATA
  6
CONTINUOUS
 62
     7
 10
233.27143399255621
 20
101.91024643203571
 30
0.0
 11
239.98894841382841
 21
95.192732010763507
 31
0.0
  0
LINE
  5
18A
  8
DATA
  6
CONTINUOUS
 62
     7
 10
234.68564755492929
 20
103.3244599944087
 30
0.0
 11
241.40316197620149
 21
96.606945573136557
 31
0.0
  0
LINE
  5
18B
  8
DATA
  6
CONTINUOUS
 62
     7
 10
90.5
 20
-200.0
 30
0.0
 11
109.5
 21
-200.0
 31
0.0
  0
LINE
  5
18C
  8
DATA
  6
CONTINUOUS
 62
     7
 10
255.9844466665657
 20
127.28049487871129
 30
0.0
 11
261.02537515412808
 21
132.8461681089471
 31
0.0
  0
LINE
  5
18D
  8
DATA
  6
CONTINUOUS
 62
     7
 10
265.35919686050403
 20
117.905744684773
 30
0.0
 11
270.92487009073989
 21
122.94667317233539
 31
0.0
  0
LINE
  5
18E
  8
DATA
  6
CONTINUOUS
 62
     7
 10
109.5
 20
-200.0
 30
0.0
 11
109.5
 21
-121.9645812374151
 31
0.0
  0
LINE
  5
18F
  8
DATA
  6
CONTINUOUS
 62
     7
 10
228.67523991484359
 20
97.314052354323124
 30
0.0
 11
235.39275433611579
 21
90.596537933050882
 31
0.0
  0
LINE
  5
190
  8
DATA
  6
CONTINUOUS
 62
     7
 10
189.70070164341249
 20
57.102077215815598
 30
0.0
 11
195.18077919760839
 21
51.62199966161981
 31
0.0
  0
LINE
  5
191
  8
DATA
  6
CONTINUOUS
 62
     7
 10
124.7352661218893
 20
-6.6259214386311811
 30
0.0
 11
131.45278054316151
 21
-13.3434358599034
 31
0.0
  0
LINE
  5
192
  8
DATA
  6
CONTINUOUS
 62
     7
 10
251.59147436747429
 20
123.1881858035642
 30
0.0
 11
261.26688778535691
 21
113.5127723856816
 31
0.0
  0
LINE
  5
193
  8
DATA
  6
CONTINUOUS
 62
     7
 10
255.83411505459361
 20
127.4308264906834
 30
0.0
 11
265.50952847247618
 21
117.75541307280091
 31
0.0
  0
ARC
  5
194
  8
DATA
  6
CONTINUOUS
 62
     7
 10
253.96982178841071
 20
125.05247906974709
 30
0.0
 40
3.0219407401551739
 50
51.908494425177302
 51
218.09150557482269
  0
ARC
  5
195
  8
DATA
  6
CONTINUOUS
 62
     7
 10
263.13118105153978
 20
115.89111980661789
 30
0.0
 40
3.0219407401551521
 50
231.908494425177
 51
38.091505574823472
  0
LINE
  5
196
  8
DATA
  6
CONTINUOUS
 62
     7
 10
96.125
 20
-72.0
 30
0.0
 11
103.875
 21
-69.599999999999994
 31
0.0
  0
LINE
  5
197
  8
DATA
  6
CONTINUOUS
 62
     7
 10
96.125
 20
-69.0
 30
0.0
 11
103.875
 21
-66.599999999999994
 31
0.0
  0
LINE
  5
198
  8
DATA
  6
CONTINUOUS
 62
     7
 10
96.125
 20
-66.0
 30
0.0
 11
103.875
 21
-63.600000000000001
 31
0.0
  0
LINE
  5
199
  8
DATA
  6
CONTINUOUS
 62
     7
 10
96.125
 20
-63.0
 30
0.0
 11
103.875
 21
-60.600000000000001
 31
0.0
  0
LINE
  5
19A
  8
DATA
  6
CONTINUOUS
 62
     7
 10
96.125
 20
-60.0
 30
0.0
 11
103.875
 21
-57.600000000000001
 31
0.0
  0
LINE
  5
19B
  8
DATA
  6
CONTINUOUS
 62
     7
 10
99.015001902743123
 20
-34.401836332245452
 30
0.0
 11
106.3768629309979
 21
-38.282226135315703
 31
0.0
  0
LINE
  5
19C
  8
DATA
  6
CONTINUOUS
 62
     7
 10
100.6866182445881
 20
-32.043479889259878
 30
0.0
 11
107.9482286560301
 21
-35.871028234207117
 31
0.0
  0
LINE
  5
19D
  8
DATA
  6
CONTINUOUS
 62
     7
 10
102.7218445159898
 20
-29.876779911607152
 30
0.0
 11
109.8989783450333
 21
-33.659801190955179
 31
0.0
  0
LINE
  5
19E
  8
DATA
  6
CONTINUOUS
 62
     7
 10
104.8431648595495
 20
-27.755459568047499
 30
0.0
 11
112.0202986885929
 21
-31.53848084739553
 31
0.0
  0
LINE
  5
19F
  8
DATA
  6
CONTINUOUS
 62
     7
 10
106.96448520310911
 20
-25.63413922448785
 30
0.0
 11
114.1416190321526
 21
-29.417160503835891
 31
0.0
  0
LINE
  5
1A0
  8
DATA
  6
CONTINUOUS
 62
     7
 10
109.08580554666879
 20
-23.512818880928211
 30
0.0
 11
116.26293937571219
 21
-27.295840160276239
 31
0.0
  0
LINE
  5
1A1
  8
DATA
  6
CONTINUOUS
 62
     7
 10
111.2071258902284
 20
-21.39149853736857
 30
0.0
 11
118.3842597192718
 21
-25.174519816716611
 31
0.0
  0
LINE
  5
1A2
  8
DATA
  6
CONTINUOUS
 62
     7
 10
113.3284462337881
 20
-19.27017819380892
 30
0.0
 11
120.5055800628315
 21
-23.053199473156958
 31
0.0
  0
LINE
  5
1A3
  8
DATA
  6
CONTINUOUS
 62
     7
 10
115.4497665773477
 20
-17.148857850249279
 30
0.0
 11
122.6269004063911
 21
-20.93187912959732
 31
0.0
  0
LINE
  5
1A4
  8
DATA
  6
CONTINUOUS
 62
     7
 10
117.57108692090731
 20
-15.02753750668964
 30
0.0
 11
124.7482207499508
 21
-18.810558786037682
 31
0.0
  0
LINE
  5
1A5
  8
DATA
  6
CONTINUOUS
 62
     7
 10
119.69240726446699
 20
-12.906217163129989
 30
0.0
 11
126.86954109351041
 21
-16.689238442478029
 31
0.0
  0
LINE
  5
1A6
  8
DATA
  6
CONTINUOUS
 62
     7
 10
121.8137276080266
 20
-10.784896819570349
 30
0.0
 11
128.99086143707009
 21
-14.567918098918391
 31
0.0
  0
LINE
  5
1A7
  8
DATA
  6
CONTINUOUS
 62
     7
 10
123.9350479515863
 20
-8.6635764760107161
 30
0.0
 11
129.93596733866511
 21
-11.82662265540695
 31
0.0
  0
LINE
  5
1A8
  8
DATA
  6
CONTINUOUS
 62
     7
 10
189.703049669747
 20
57.104425242150072
 30
0.0
 11
196.8801834987905
 21
53.321403962802037
 31
0.0
  0
LINE
  5
1A9
  8
DATA
  6
CONTINUOUS
 62
     7
 10
191.82437001330669
 20
59.22574558570971
 30
0.0
 11
199.0015038423501
 21
55.442724306361669
 31
0.0
  0
LINE
  5
1AA
  8
DATA
  6
CONTINUOUS
 62
     7
 10
193.94569035686641
 20
61.347065929269348
 30
0.0
 11
201.12282418590979
 21
57.564044649921328
 31
0.0
  0
LINE
  5
1AB
  8
DATA
  6
CONTINUOUS
 62
     7
 10
196.06701070042601
 20
63.46838627282898
 30
0.0
 11
203.24414452946939
 21
59.685364993480981
 31
0.0
  0
LINE
  5
1AC
  8
DATA
  6
CONTINUOUS
 62
     7
 10
198.18833104398561
 20
65.589706616388639
 30
0.0
 11
205.36546487302911
 21
61.806685337040612
 31
0.0
  0
LINE
  5
1AD
  8
DATA
  6
CONTINUOUS
 62
     7
 10
200.3096513875453
 20
67.711026959948299
 30
0.0
 11
207.48678521658869
 21
63.928005680600251
 31
0.0
  0
LINE
  5
1AE
  8
DATA
  6
CONTINUOUS
 62
     7
 10
202.4309717311049
 20
69.83234730350793
 30
0.0
 11
209.6081055601484
 21
66.049326024159882
 31
0.0
  0
LINE
  5
1AF
  8
DATA
  6
CONTINUOUS
 62
     7
 10
204.55229207466451
 20
71.953667647067562
 30
0.0
 11
211.72942590370801
 21
68.170646367719542
 31
0.0
  0
LINE
  5
1B0
  8
DATA
  6
CONTINUOUS
 62
     7
 10
206.6736124182242
 20
74.074987990627221
 30
0.0
 11
213.85074624726769
 21
70.291966711279201
 31
0.0
  0
LINE
  5
1B1
  8
DATA
  6
CONTINUOUS
 62
     7
 10
208.7949327617838
 20
76.196308334186838
 30
0.0
 11
215.9720665908273
 21
72.413287054838833
 31
0.0
  0
LINE
  5
1B2
  8
DATA
  6
CONTINUOUS
 62
     7
 10
210.91625310534349
 20
78.317628677746484
 30
0.0
 11
218.09338693438701
 21
74.53460739839845
 31
0.0
  0
LINE
  5
1B3
  8
DATA
  6
CONTINUOUS
 62
     7
 10
213.03757344890309
 20
80.438949021306144
 30
0.0
 11
220.21470727794659
 21
76.655927741958109
 31
0.0
  0
LINE
  5
1B4
  8
DATA
  6
CONTINUOUS
 62
     7
 10
215.15889379246281
 20
82.560269364865775
 30
0.0
 11
222.33602762150619
 21
78.777248085517726
 31
0.0
  0
LINE
  5
1B5
  8
DATA
  6
CONTINUOUS
 62
     7
 10
217.28021413602241
 20
84.681589708425406
 30
0.0
 11
224.45734796506591
 21
80.898568429077372
 31
0.0
  0
LINE
  5
1B6
  8
DATA
  6
CONTINUOUS
 62
     7
 10
219.40153447958201
 20
86.802910051985052
 30
0.0
 11
226.57866830862551
 21
83.019888772637046
 31
0.0
  0
LINE
  5
1B7
  8
DATA
  6
CONTINUOUS
 62
     7
 10
221.5228548231417
 20
88.924230395544726
 30
0.0
 11
228.6999886521852
 21
85.141209116196677
 31
0.0
  0
LINE
  5
1B8
  8
DATA
  6
CONTINUOUS
 62
     7
 10
223.6441751667013
 20
91.045550739104385
 30
0.0
 11
230.8213089957448
 21
87.262529459756323
 31
0.0
  0
LINE
  5
1B9
  8
DATA
  6
CONTINUOUS
 62
     7
 10
225.76549551026091
 20
93.166871082663974
 30
0.0
 11
232.94262933930449
 21
89.383849803315954
 31
0.0
  0
LINE
  5
1BA
  8
DATA
  6
CONTINUOUS
 62
     7
 10
227.88681585382059
 20
95.288191426223634
 30
0.0
 11
233.83785598706919
 21
92.151436282097563
 31
0.0
  0
LINE
  5
1BB
  8
DATA
  6
CONTINUOUS
 62
     7
 10
101.98286437626911
 20
-30.615760051327531
 30
0.0
 11
125.3539845554275
 21
-7.2446398721693717
 31
0.0
  0
LINE
  5
1BC
  8
DATA
  6
CONTINUOUS
 62
     7
 10
109.73286437626901
 20
-33.825915159719507
 30
0.0
 11
130.83406210962329
 21
-12.724717426365171
 31
0.0
  0
ARC
  5
1BD
  8
DATA
  6
CONTINUOUS
 62
     7
 10
123.875
 20
-47.968050783450451
 30
0.0
 40
20.000000000000011
 50
135.0
 51
180.0
  0
ARC
  5
1BE
  8
DATA
  6
CONTINUOUS
 62
     7
 10
116.125
 20
-44.757895675058521
 30
0.0
 40
19.999999999999989
 50
134.99999999999969
 51
180.0
  0
LINE
  5
1BF
  8
DATA
  6
CONTINUOUS
 62
     7
 10
96.125
 20
-57.0
 30
0.0
 11
103.875
 21
-54.600000000000001
 31
0.0
  0
LINE
  5
1C0
  8
DATA
  6
CONTINUOUS
 62
     7
 10
96.125
 20
-54.0
 30
0.0
 11
103.875
 21
-51.600000000000001
 31
0.0
  0
LINE
  5
1C1
  8
DATA
  6
CONTINUOUS
 62
     7
 10
96.125
 20
-51.0
 30
0.0
 11
103.875
 21
-48.600000000000001
 31
0.0
  0
LINE
  5
1C2
  8
DATA
  6
CONTINUOUS
 62
     7
 10
96.125
 20
-48.0
 30
0.0
 11
104.02113496968011
 21
-45.554745299711932
 31
0.0
  0
LINE
  5
1C3
  8
DATA
  6
CONTINUOUS
 62
     7
 10
96.125
 20
-45.0
 30
0.0
 11
104.68007293164401
 21
-42.350687092136042
 31
0.0
  0
CIRCLE
  5
1C4
  8
DATA
  6
CONTINUOUS
 62
     7
 10
-149.9999999999992
 20
-254.69799084375529
 30
0.0
 40
0.625
  0
CIRCLE
  5
1C5
  8
DATA
  6
CONTINUOUS
 62
     7
 10
-146.4011302200407
 20
-253.01981030465851
 30
0.0
 40
0.625
  0
CIRCLE
  5
1C6
  8
DATA
  6
CONTINUOUS
 62
     7
 10
-145.37338219313321
 20
-249.18420245086281
 30
0.0
 40
0.625
  0
CIRCLE
  5
1C7
  8
DATA
  6
CONTINUOUS
 62
     7
 10
-153.59886977995919
 20
-253.01981030465851
 30
0.0
 40
0.625
  0
CIRCLE
  5
1C8
  8
DATA
  6
CONTINUOUS
 62
     7
 10
-154.6266178068667
 20
-249.18420245086281
 30
0.0
 40
0.625
  0
ENDSEC
  0
EOF
